• Song:

    Human After All

  • Artist:

    Daft Punk

  • Album:

    Musique Vol.1 1993 - 20...

transcribed by mcbrownshoes@fastmail.fm
written for two guitars

Cm                                           Eb
355433                                     X68886
E-----------------------------------------------------------------|
B-----------------------------------------------------------------|
G-----------------------------------------------------------------|
D----------1-5--3----------------------------3--1-----------------|
A------1h3-------------------------------1-3----------------------|
E--1h3-------------------------------1-3--------------------------|
                    we are human                    after all

             Fm                                Ab            Bb
           122111                            466544        688766
E-----------------------------------------------------------------|
B-----------------------------------------------------------------|
G-----------------------------------------------------------------|
D----------5--6------------------------------5--3-----------------|
A------1-3-------------------------------1-3----------------------|
E--1-3-------------------------------1-3--------------------------|
                  flesh uncovered                    after all
Show more