• Song:

    The Way I Do

  • Artist:

    Darren Criss

The Way I Do - Starship Chords
Pay attention to the song for the exact time of the chord changes :)
By - erz1302


     C                     G           Am7
e----------------------------- 3 ----3----3------------|
b------------------------- 5 -----3----1---------------|
g--------- 5 h 7 - 5 h 7 ------------------------------|     X2
d--5 h 7 ----------------------------------------------|
a------------------------------------------------------|
E------------------------------------------------------|


    C                          Am                 Em
When they say you can't love I think you've got it wrong

  Fmaj7                            Dm7
and you say you can't feel with a heart made of steel
  Gsus2                                G
But you can't say that steel ain't strong
  C                            Em                    Am
Well if that's who you are, a meaningless star in the sky
        Fmaj7                  Dm7
Tell me what is the meaning of what I am feeling
   Gsus2               G
If you are the reason why
  E          Am                   C7
Now I may be dumb but where I come from
                  F                     Fm6
Folks say they're fine when I know that they're blue
               Dm7         Fm        C
But you don't know you the way I do


e-----------------------------|
b------------------------- 1 -|
g--------- 1 h 3 - 1 h 3 -----|
d--1 h 3 ---------------------|
a-----------------------------|
E-----------------------------|
      B6               Eb
Your kind is frail and weak

      Cm                  Gm             Abmaj7
And I want to destroy you all, You're a sorry disgrace
      Fm7                Bbsus2                  Bb
To the concept of race and to logical science and law
         Eb                       Cm                    Gm
But for some reason why when you look at me I don't wanna be
   Abmaj7              Fm7
Programmed this way, Believe when I say
      Bbsus2             Bb           G            C
You're the one anomaly,          You might not be smart
              Eb7
But there is a part of me that's
  Ab                Abm6
starting to make a breakthrough
              Fm7         Abm       Eb
No you don't know you the way I do
  Bbm                        Eb
I never expected         To find something like you

  Bbm                             Eb
I don't know anything but you're giving me a clue

Gm - Cm                               Gm
           I can see past the surface
             Fm7                  Abmaj7 - Bb
Finding the worth that is hiding beneath
      Cm              Gm
It's life and purpose
     Ab                 F7
And all of a sudden I feel like I've run into
  Bb                         Gsus2 - G
something that no one has seen


     C                      G           Am7
e----------------------------- 3 ----3----3------------|
b------------------------- 5 -----3----1---------------|
g--------- 5 h 7 - 5 h 7 ------------------------------|     X2
d--5 h 7 ----------------------------------------------|
a------------------------------------------------------|
E------------------------------------------------------|


e------------------------------|
b----------------------------2-|
g---------2 h 4---2 h 4--------|
d--2 H 4 ----------------------|
a------------------------------|
E------------------------------|
          A                        F#m         C#m
You're perfect and wonderful How I hoped you'd be
          Dmaj7
But it's really enough
     Bm7             Esus2    E
For you to be just a human being
      A
And I know you'll agree
  F#m                      C#m
That's all we need to make all of our dreams come true

       Dmaj7                   Bm7
If this life has an ending I'm glad that I'm spending

       E                    C#7
This short little time with you
            F#m                         A7
I'm So much more than what you thought before
         D               Dm6
Now that we have gotten to
         Bm7
Get to know you , you don't know you
           Dm
But you don't know me
             A
The way I do

Ending:
F#m            C#m                 Dmaj7              
Dm                A
Show more