Tabbed By : will doyle and michael goozee
e-mail:

Tuning: standard

intro and verse
G|--------------------------------------|
D|--------------------------------------|
A|--3-3---3--5-5---5--7-7---7--5-5---5--|
E|------3--------5--------7--------5----|


pre chorus
G|--------------------------------------------------------------------------------------|
D|--------------------------------------------------------------------------------------|
A|---3--3--3----------------------3-----3--5-----5---3~---------------------------------|
E|-----------0----1--1--1-4-----------3--------5----------------------------------------|

G|-------------------------------------------------------------------------------|
D|-------------------------------------------------------------------------------|
A|---------3---------------------------------------------------------------------|
E|---3--5----5-------------------------------------------------------------------|

chorus
G|------2-----------------2----------------------------------------------------|
D|----2---2------2------2---2------2-------------------------------------------|
A|--0----------2---2--0----------2---2-----X2----------------------------------|
E|-----------0-----------------0-----------------------------------------------|


G|---------------------------------------------------------------------------|
D|---------------------------------------------------------------------------|
A|---------------------------------------------------------------------------|
E|--5555-3333-2222-1111--X4--------------------------------------------------|

G|---------------------------------------------------------------------------|
D|---------------------------------------------------------------------------|
A|---------------------------------------------------------------------------|
E|---------------------------------------------------------------------------|

break then play verse an octave higher then back to normal verse
G|---5-5---5--7-7---7--9-9---9-----------------------------------------------|
D|-------5--------7--------9-------------------------------------------------|
A|---------------------------------------------------------------------------|
E|---------------------------------------------------------------------------|

G|-----------------------------------------------------------------------------|
D|-----------------------------------------------------------------------------|
A|---3-3---3--5-5---5--7-7---7----end-on 7-------------------------------------|
E|-------3--------5--------7---------------------------------------------------|

these are pretty much the root notes, the actual song has some added slides and so on.


| /  slide up
| \  slide down
| h  hammer-on
| p  pull-off
| ~  vibrato
| +  harmonic
| x  Mute note
===============================================================================
Show more