• Song:

    I Need Words

  • Artist:

    David Crowder Band

  • Album:

    Can You Hear Us?

I Need Words
David Crowder Band
tabbed by jerry (remmeh@gmail.com)

Tuning: EAEEBe

Intro
e------------------------------0-------------------------------------------|
B--------0--------0--------------0------------0--------0-------------------|
E------0--------0------------------0--------0--------0---------------------|
E----5--------7--------7/9-/7-------------5--------7--------7/9-/7--5/4-0--|
A--4-------/6--------0------------------4-------/6--------0----------------|
E--------------------------------------------------------------------------|

e------------------------------0----------------------------------------0--|
B--------0--------0--------------0------------0--------0------------0------|
E------0--------0------------------0--------0--------0----------------0----|
E----5--------7--------7/9-/7-------------5--------7----------0h2/4--------|
A--4-------/6--------0------------------4-------/6----------2--------------|
E---------------------------------------------------------0----------------|


Verse
e-----------------------------0------------------------------------0-------|
B--------0--------0-------------0-------------0--------0--------0----0-----|
E------0--------0-----------------0---------0--------0--------0--------0---|
E----5--------7--------7/9-/7-------------5--------7--------7--------------|
A--4-------/6--------0------------------4-------/6--------0----------------|
E--------------------------------------------------------------------------|
           I need words                         as wide as sky
           I need language large as             this longing inside
           I need a voice                       bigger than mine
           I need a song to sing You            that I've yet to find

Chorus
e-------------0----------------0-----------------0-------------0h2--0------|
B---------------0-----------0----0------------0----0------------------0----|
E-----------------0-------0--------0--------0--------0-------0----------0--|
E------0-0h2------------0-----------------5----------------2---------------|
A----2----------------0-----------------4----------------2-----------------|
E--4-----------------------------------------------------------------------|
  I need You                          oh I need You

e-------------0----------------0-----------------0------------------0------|
B---------------0-----------0----0------------0----0-----------0------0----|
E-----------------0-------0--------0--------0--------0-------0----------0--|
E------0-0h2------------0-----------------5----------------2---------------|
A----2----------------0-----------------4----------------2-----------------|
E--4-----------------------------------------------------------------------|
  I need You                          oh I need You


Outro
e----------------0----|
B------------0-----0--|
E----------0---0------|
E----0h2/4------------|
A--0------------------|
E---------------------|
  to be here now

e------------------------------0-------------------------------------------|
B--------0--------0--------------0------------0--------0-------------------|
E------0--------0------------------0--------0--------0---------------------|
E----5--------7--------7/9-/7-------------5--------7--------7/9-/7--5/4-0--|
A--4-------/6--------0------------------4-------/6--------0----------------|
E--------------------------------------------------------------------------|
                             to be here now                       to hear me now

e------------------------------0----------------------------------------0--|
B--------0--------0--------------0------------0--------0------------0------|
E------0--------0------------------0--------0--------0----------------0----|
E----5--------7--------7/9-/7-------------5--------7----------0h2/4--------|
A--4-------/6--------0------------------4-------/6----------2--------------|
E---------------------------------------------------------0----------------|
                              to hear me now
Show more