• Song:

    No One Like You

  • Artist:

    David Crowder Band

ok
theres no full tab
so here you go
i play in flat tuning
guitar 1
----------------------|
3-3-3-3--3-1-0-1-0-1--|
-------0==========----|
----------------------| 4x
----------------------|
----------------------|
guitar 2(wait 2 measures)
--------------------|
--------------------|
--------------------|
5===================
5===================
3===================
verse both guitars
--------------------|
--------------------|
-----7-7--9-9--5-5--|
5-5--7-7--9-9--5-5--| 2x
5-5--5-5--7-7--3-3--|
3-3-----------------|

repeat intro whit verse 3x on fourth time
--------------
3-3-3b(slowly)
--------------|
--------------|
--------------|
--------------|

bridge
---------------|
---------------|
7======--------|
7======5=======
5======5=======
-------3=======

well thats about all
remember flat tuning
ok cya
Show more