• Song:

    Only You

  • Artist:

    David Crowder Band

sponsored links
-------------------------------------------------------------------------------
			     ONLY YOU - David Crowder Band
-------------------------------------------------------------------------------
Tabbed by: fiveironbrad

WOW this took a while to tab out... A few things to say about this one: I
placed some notes in parentheses either because they are played very softly
or not at all.  Ok, I know I shouldn't put in notes that aren't really there,
but think of them as placeholders for keeping the tempo.  Also, DO NOT USE A
PICK FOR THIS SONG!!  It is meant to be fingerpicked.  If you see any errors
or have any questions just message me or leave a comment.  Thanks! :D

INTRO:
    C (x32010@1)                                 G/Be|---------------------------------------------------------0-----------------| (143121@7)B|------------1--------1h3-----3------------------3-----------3p1p0----------|
G|---------0--------0----------------0---------0--------0------------2p0-----|
D|-----0h2-------2----------2-----2---------0--------0-----------------------|
A|--3------------------------------------2-----------------------------------|
E|---------------------------------------------------------------------------|

   Am7 (x02010@1)                                F (133211@1)e|-----------------------------0---------------------------------------------|
B|------------0--------0h1-----------1----------------1-------------1--------|
G|---------0--------0----------------------------0h2--------2p0-----------0--|
D|-----0h2-------2---------(2)-------------0h2h3-----------------------3-----|
A|--0----------------------------(0)-----------------------------------------|
E|--------------------------------------1---------------(1)-----(1)----------|

    C (x32010@1)                                 G/Be|---------------------------------------------------------0-----------------| (143121@7)B|------------1--------1h3-----3------------------3-----------3p1p0----------|
G|---------0--------0----------------0---------0--------0------------2p0-----|
D|-----0h2-------2----------2-----2---------0--------0-----------------------|
A|--3------------------------------------2-----------------------------------|
E|---------------------------------------------------------------------------|

   Am7 (x02010@1)                                F (133211@1)e|-----------------------------0---------------------------------------------|
B|------------0--------0h1-----------1----------------0h1--1h3-----1---------|
G|---------0--------0----------------------------0h2---------------------0---|
D|-----0h2-------2---------(2)-------------0h2h3----------------3-----3------|
A|--0----------------------------(0)-----------------------------------------|
E|--------------------------------------1------------------------------------|

VERSES:
    C (x32010@1)                                 G/Be|---------------------------------------------------------------------------| (143121@7)B|------------1----------------1------------------1----------------1---------|
G|---------0--------0-------0--------0---------0--------0-------0--------0---|
D|-----0h2-------------2h3------------------0--------------2h3---------------|
A|--3------------3----------------3------2-----------2----------------2------|
E|---------------------------------------------------------------------------|

   Am7 (x02010@1)                                F (133211@1)                            (x2)
e|---------------------------------------------------------------------------|
B|-----------1----------------1-----------------------1-------------1--------|
G|--------0--------0-------0--------0------------0h2--------2p0-----------0--|
D|-----2--------------2h3------------------0h2h3-----------------------3-----|
A|--0-----------0----------------0-------------------------------------------|
E|--------------------------------------1---------------(1)-----(1)----------|

BRAKE 1:
    C (x32010@1)                                 G/Be|---------------------3-----------------------------------3--1--------------| (143121@7)B|------------1-----------------1-----------------1-----------------1--------|
G|---------0--------0-------(0)-------0--------0--------0-----------------0--|
D|-----0h2-------2-------(2)-------2--------0--------0----------------(0)----|
A|--3------------------------------------2----------------------(2)----------|
E|---------------------------------------------------------------------------|

   Am7 (x02010@1)                                 Fe|---------------------1--0--------------------------------------------------| (133211@1)B|------------1-----------------1---------------------0h1--1h3-----1---------|
G|---------0--------0-----------------0----------0h2---------------------0---|
D|-----0h2-------2----------------(2)------0h2h3----------------3-----3------|
A|--0-----------------------(0)----------------------------------------------|
E|---------------------------------------1-----------------------------------|

CHORUS:  (strum)
    C (x32010@1)             G (320003@1)            Am7 (x02010@1)            F (133211@1)                (x2)  
e|--3---------------3---------------3---------------3------------------------|
B|--1---------------1---------------1---------------1------------------------|
G|--0---------------0---------------0---------------0---------0h2--2p0-------|
D|--2---------------0---------------2---------------3------------------------|
A|--3---------------2---------------0---------------x------------------------|
E|--x---------------3---------------x---------------1------------------------|

BRAKE 2:  (same as first half of intro)
    C (x32010@1)                                 G/Be|---------------------------------------------------------0-----------------| (143121@7)B|------------1--------1h3-----3------------------3-----------3p1p0----------|
G|---------0--------0----------------0---------0--------0------------2p0-----|
D|-----0h2-------2----------2-----2---------0--------0-----------------------|
A|--3------------------------------------2-----------------------------------|
E|---------------------------------------------------------------------------|

   Am7 (x02010@1)                                F (133211@1)e|-----------------------------0---------------------------------------------|
B|------------0--------0h1-----------1----------------1-------------1--------|
G|---------0--------0----------------------------0h2--------2p0-----------0--|
D|-----0h2-------2----------2--------------0h2h3-----------------------3-----|
A|--0----------------------------(0)-----------------------------------------|
E|--------------------------------------1---------------(1)-----(1)----------|

  (verse)
  (chorus)
  (bridge: same chords as chorus)


| h  hammer-on
| p  pull-off
| x  Mute note
===============================================================================


Show more
sponsored links
sponsored links