PROMISE ME
ARTIST: DEAD BY APRIL
BASS TABS
TABBED BY Chaos Theosis
2 Step down tuning (C,F,A#,D#) available soon so down rate down b/c of that

INTRO
G) ----------------||----------------||----------------||----------------||
D) ----------------||----------------||----------------||----------------||
A) FIVE------------||BARS------------||OF--------------||REST------------||
E) ----------------||----------------||----------------||----------------||
B) ----------------||----------------||----------------||----------------||

G) ----------------||----------------||----------------||----------------||
D) ----------------||----------------||----------------||----------------||
A) ----------------||----------------||----------------||----------------||
E) 0-0-R-0-0-R-0-0-||R-0-0-R-2-2-2~~~||2-2-R-2-2-R-2-2-||--2-2-R-3-3-3~~~||
B) ----------------||----------------||----------------||----------------||

VERSE   
G) ----------------||----------------||----------------||----------------||
D) ----------------||----------------||----------------||----------------||
A) EIGHT-----------||BARS------------||OF--------------||REST------------||
E) ----------------||----------------||----------------||----------------||
B) ----------------||----------------||----------------||----------------||
   
G) ----------------||----------------||----------------||----------------||
D) ----------------||----------------||----------------||----------------||
A) ----------------||----------------||----------------||----------------||
E) 0-0-R-0-0-R-0-0-||R-0-0~~~2~~~~~~~||2-2-R-2-2-R-2-2-||R-2-2~~~4~~~~~~~||
B) ----------------||----------------||----------------||----------------||

G) ----------------||----------------||----------------||----------------||
D) ----------------||----------------||----------------||----------------||
A) ----------------||----------------||----------------||----------------||
E) 0-0-R-0-0-R-0-0-||R-0-0~~~2~~~~~~~||2-2-R-2-2-R-2-2-||R-2-2~~~4~~~~~~~||
B) ----------------||----------------||----------------||----------------||

G) ----------------||----------------||----------------||----------------||
D) ----------------||----------------||----------------||----------------||
A) ----------------||----------------||----------------||----------------||
E) 0-0-R-0-0-R-----||----------------||2-2-R-2-2-R-2-2-||R-2-2~~~4~~~~~~~||
B) ------------4-4-||R-4-4~~~7~~~~~~~||----------------||----------------||

G) ----------------||----------------||
D) ----------------||----------------||
A) ----------------||----------------||
E) 2~~~~~~~~~~~~~~~||4~~~------------||
B) ----------------||----------------||

Chorus
G) ----------------||----------------||----------------||----------------||
D) ----------------||----------------||----------------||----------------||
A) 2~~~~~~~~~~-----||----------------||2~~~~~~~~~~-----||-----------4~~~~||
E) -----------2~~~~||0~~~~~~~~~~4~~~~||-----------2~~~~||0~~~~~~~~~~-----||
B) ----------------||----------------||----------------||----------------||

G) ----------------||----------------||
D) ----------------||----------------||
A) 2~~~~~~~~~~-----||-----------4~~~~||
E) -----------2~~~~||0~~~~~~~~~~-----||
B) ----------------||----------------||

Re-Entry

G) ----------------||----------------||----------------||----------------||
D) ----------------||----------------||----------------||----------------||
A) ----------------||----------------||----------------||----------------||
E) 0-0-R-0-0-R-0-0-||R-0-0-R-2-2-2~~~||2-2-R-2-2-R-2-2-||2-2-R-3-3-3~~~~~||
B) ----------------||----------------||----------------||----------------||

Verse
G) ----------------||----------------||----------------||----------------||
D) ----------------||----------------||----------------||----------------||
A) ----------------||----------------||----------------||----------------||
E) 0-0-R-0-0-R-0-0-||R-0-0~~~2~~~~~~~||2-2-R-2-2-R-2-2-||R-2-2~~~4~~~~~~~||
B) ----------------||----------------||----------------||----------------||

G) ----------------||----------------||----------------||----------------||
D) ----------------||----------------||----------------||----------------||
A) ----------------||----------------||----------------||----------------||
E) 0-0-R-0-0-R-0-0-||R-0-0~~~2~~~~~~~||2-2-R-2-2-R-2-2-||R-2-2~~~4~~~~~~~||
B) ----------------||----------------||----------------||----------------||

G) ----------------||----------------||----------------||----------------||
D) ----------------||----------------||----------------||----------------||
A) ----------------||----------------||----------------||----------------||
E) 0-0-R-0-0-R-0-0-||R-0-0~~~2~~~~~~~||2-2-R-2-2-R-2-2-||R-2-2~~~4~~~~~~~||
B) ----------------||----------------||----------------||----------------||

G) ----------------||----------------||----------------||----------------||
D) ----------------||----------------||----------------||----------------||
A) ----------------||----------------||----------------||----------------||
E) 0-0-R-0-0-R-0-0-||R-0-0~~~2~~~~~~~||2-2-R-2-2-R-2-2-||R-2-2~~~4~~~~~~~||
B) ----------------||----------------||----------------||----------------||

G) ----------------||----------------||----------------||----------------||
D) ----------------||----------------||----------------||----------------||
A) ----------------||----------------||----------------||----------------||
E) 0-0-R-0-0-R-----||----------------||2-2-R-2-2-R-2-2-||R-2-2~~~4~~~~~~~||
B) ------------4-4-||R-4-4~~~7~~~~~~~||----------------||----------------||

G) ----------------||----------------||
D) ----------------||----------------||
A) ----------------||----------------||
E) 2~~~~~~~~~~~~~~~||4~~~------------||
B) ----------------||----------------||

Chorus
G) ----------------||----------------||----------------||----------------||
D) ----------------||----------------||----------------||----------------||
A) 2~~~~~~~~~~-----||----------------||2~~~~~~~~~~-----||-----------4~~~~||
E) -----------2~~~~||0~~~~~~~~~~4~~~~||-----------2~~~~||0~~~~~~~~~~-----||
B) ----------------||----------------||----------------||----------------||

G) ----------------||----------------||
D) ----------------||----------------||
A) 2~~~~~~~~~~-----||-----------4~~~~||
E) -----------2~~~~||0~~~~~~~~~~-----||
B) ----------------||----------------||

Interlude
G) ----------------||----------------||----------------||----------------||
D) ----------------||----------------||----------------||----------------||
A) ----------------||----------------||2~~~~~~~~~~~~~~~||----------------||
E) 0-0-R-0-0-R-0-0-||R-0-0-R-2-2-2~~~||----------------||2~~~~~~~~~~~~~~~||
B) ----------------||----------------||----------------||----------------||

G) ----------------||----------------||----------------||----------------||
D) ----------------||----------------||----------------||----------------||
A) ----------------||----------------||2~~~~~~~~~~~~~~~||----------------||
E) 0-0-R-0-0-R-0-0-||R-0-0-R-2-2-2~~~||----------------||2~~~~~~~~~~~~~~~||
B) ----------------||----------------||----------------||----------------||

G) ----------------||----------------||----------------||----------------||
D) ----------------||----------------||----------------||----------------||
A) ----------------||----------------||2~~~~~~~~~~~~~~~||----------------||
E) 0-0-R-0-0-R-0-0-||R-0-0-R-2-2-2~~~||----------------||2~~~~~~~~~~~~~~~||
B) ----------------||----------------||----------------||----------------||

G) ----------------||----------------||----------------||----------------||
D) ----------------||----------------||----------------||----------------||
A) ----------------||----------------||2~~~~~~~~~~~~~~~||----------------||
E) 0-0-R-0-0-R-0-0-||R-0-0-R-2-2-2~~~||----------------||2~~~~~~~~~~~~~~~||
B) ----------------||----------------||----------------||----------------||

G) ----------------||----------------||----------------||----------------||
D) ----------------||----------------||----------------||----------------||
A) ----------------||----------------||----------------||----------------||
E) 4-R-4-4-4-R-4-4-||4~~~4~~~4-4-4~~~||4~~~4-4-4~~~4-4-||4~~~RRRR4-4-4~~~||
B) ----------------||----------------||----------------||----------------||

G) ----------------||----------------||----------------||----------------||
D) ----------------||----------------||----------------||----------------||
A) 2-2-R-2-2-R-2-2-||R-2-2-R-2-2-R-2-||2-R-2-2-R-2-2-R-||2-2-R-2-2-R-2-2-||
E) ----------------||----------------||----------------||----------------||
B) ----------------||----------------||----------------||----------------||

Chorus
G) ----------------||----------------||----------------||----------------||
D) ----------------||----------------||----------------||----------------||
A) 2~~~~~~~~~~-----||----------------||2~~~~~~~~~~-----||-----------4~~~~||
E) -----------2~~~~||0~~~~~~~~~~4~~~~||-----------2~~~~||0~~~~~~~~~~-----||
B) ----------------||----------------||----------------||----------------||

G) ----------------||----------------||----------------||----------------||
D) ----------------||----------------||----------------||----------------||
A) 2~~~~~~~~~~-----||-----------4~~~~||2~~~~~~~~~~-----||----------------||
E) -----------2~~~~||0~~~~~~~~~~-----||-----------2~~~~||0~~~~~~~~~~4~~~~||
B) ----------------||----------------||----------------||----------------||

G) ----------------||----------------||----------------||----------------||
D) ----------------||----------------||----------------||----------------||
A) 2~~~~~~~~~~-----||-----------4~~~~||2~~~~~~~~~~-----||----------------||
E) -----------2~~~~||0~~~~~~~~~~-----||-----------2~~~~||0~~~~~~~~~~4~~~~||
B) ----------------||----------------||----------------||----------------||

Outro
G) ----------------||----------------||----------------||----------------||
D) ----------------||----------------||----------------||----------------||
A) ----------------||----------------||----------------||----------------||
E) 0-0-R-0-0-R-0-0-||R-0-0-R-2-2-2~~~||2-2-R-2-2-R-2-2-||--2-2-R-3-3-3~~~||
B) ----------------||----------------||----------------||----------------||

G) ----------------||----------------||----------------||----------------||
D) ----------------||----------------||----------------||----------------||
A) ----------------||----------------||----------------||----------------||
E) 0-0-R-0-0-R-0-0-||R-0-0-R-2-2-2~~~||2-2-R-2-2-R-2-2-||--2-2-R-3-3-3~~~||
B) ----------------||----------------||----------------||----------------||

G) ----------------||----------------||----------------||----------------||
D) ----------------||----------------||----------------||----------------||
A) THREE-----------||BARS------------||OF--------------||REST------------||
E) ----------------||----------------||----------------||----------------||
B) ----------------||----------------||----------------||----------------||
Show more