+ --------------------------------------------------------------------- +
| Ultimate Guitar Tabs Archive - your #1 source for tabs!               |
| http://www.ultimate-guitar.com/                                       |
|                                                                       |
| Over 800,000 guitar, guitar pro and bass tabs! Also lessons, news,    |
| columns and guitar forums!                                            |
+ --------------------------------------------------------------------- +

                                        Windows Of Time (Fred Cole)



INTRO:

E|----------------------------------------|
B|---------1----------0-------0----0----3-|
G|-2/4-2-0-2--2/4-2-0-0-------0--0---0--2-| (2x)
D|---------2----------2-----0-0---------0-|
A|---------0----------2--0/2--2---------0-|
E|--------------------0-------3-----------|
           Am         Em      G         D



Am                        Em
The windows of time are frozen
G                         D
Where are the teardrops going
Am                     Em
Another heartbeat is slowing
G                            D
Plain as day, something is broken
          Am                       Em
And the wheels inside my head are turning
G                        D
Like the lines I keep relearning
          Am               Em
I can't stay, no I can't stay
G     D              G
This time I have to go


Am Em G D


I thought that we would last forever
Superstitions never say never
And I feel I've been abandoned
With a lack of understanding
I might regret the steps I'm taking
I can't stay, no I can't stay
This time I have to go


SOLO: Am Em G D (see below)


Out of the cape of disappointment
Where I'm bound, I don't know yet
The winds that change direction
The harbors of rejection
And the blade inside of me is twisting
I've spent my live resisting
I can't stay, no I can't stay
This time I have to go


END!




(SOLO:)

E|------0----0-------------------------------|
B|--0-3----3---3-0/3-3--3/0-----0-0----------|
G|-------------------------2-0------2--0-2-4-|
D|-------------------------------------------|
A|-------------------------------------------|
E|-------------------------------------------|
        Am         Em        G           D


E|------0---0/2-0-------------------------------|
B|--3-3-----------3-0/3--0----------------------|
G|------------------------2--0-0--0-0-4--4-4-2--|
D|----------------------------------------------|
A|----------------------------------------------|
E|----------------------------------------------|
       Am             Em       G             D

E|------0----0------------------------------|
B|--3-3----3---3-3-0--0---------------------|
G|----------------------2-0--0-0-4--4-4-2---|
D|------------------------------------------|
A|------------------------------------------|
E|------------------------------------------|
        Am         Em        G          D

E|-----------------------------------------------|
B|--------------------------------------------0--|
G|--2-4-4-2-0-----4-4-2-0-------0----4/2--0-0-0--|
D|-----------2-----------2--2-4---------------0--|
A|--------------------------------------------2--|
E|--------------------------------------------3--|
             Am          Em     G     D       G





Dead Moon:
Fred Cole-  Guitar, Vocals
Toody Cole-  Bass, Vocals
Andrew Loomis- Drums

Tabbed by Deadmoony

"Windows Of Time"  on "Nervous Sooner Changes" (Music Maniac Records, MMLP 066, 1995)
Show more