Author/Artist: Deadsy
Title: Replicas
Album: Gary Numan Tribute Album
Transcribed by: Lucas Aske
Email: p_exeter@yahoo.com

Tuning: A# F A# D# G# C#

Just Keep Playing the little riffs over and over until the song is complete.

------------------------------------------------------------------------------
------------------------------------------------------------------------------
------------------------------------------------------------------------------
-3-3----3-3----3-3----3-3----1-1----1-1----1-1----1-1----3-3----3-3----3-3----
-3-3----3-3----3-3----3-3----1-1----1-1----1-1----1-1----3-3----3-3----3-3----
-3-3----3-3----3-3----3-3----1-1----1-1----1-1----1-1----3-3----3-3----3-3----
                                                                              

------------------------------------------------------------------------------
------------------------------------------------------------------------------
------------------------------------------------------------------------------
-3-3----3-3-----1-1----1-1----1-1----1-1----8-8----8-8----8-8----8-8----6-6---
-3-3----3-3-----1-1----1-1----1-1----1-1----8-8----8-8----8-8----8-8----6-6---
-3-3----3-3-----1-1----1-1----1-1----1-1----8-8----8-8----8-8----8-8----6-6---
                                                                              

------------------------------------------------------------------------------
------------------------------------------------------------------------------
------------------------------------------------------------------------------
-6-6----6-6----6-6----8-8----8-8----8-8----8-8----6-6----6-6----6-6-----6-6---
-6-6----6-6----6-6----8-8----8-8----8-8----8-8----6-6----6-6----6-6-----6-6---
-6-6----6-6----6-6----8-8----8-8----8-8----8-8----6-6----6-6----6-6-----6-6---
                                                                              
                                           And So On....................                  
------------------------------------------------------------------------------
------------------------------------------------------------------------------
------------------------------------------------------------------------------
-8-8----8-8----8-8----8-8----6-6----4-4-----3-3-----3-3----3-3----3-3----1-1--
-8-8----8-8----8-8----8-8----6-6----4-4-----3-3-----3-3----3-3----3-3----1-1--
-8-8----8-8----8-8----8-8----6-6----4-4-----3-3-----3-3----3-3----3-3----1-1--
Show more