First attempt at a tab, so here´s goes nothing!

Intro >> no bass

Main theme
G|----------------------------------| 2x
D|----------------------------------|
A|----------------------------------|
E|33333333-77777777-5555555555555555|

Verse
G|----------------------------------| 4x
D|-5--5-9--9-3--3-3--3.-------------|
A|----------------------------------|
E|3-33-7-77-5-55-5-55---------------|

Chorus
G|----------------------------------| 3x
D|----------------------------------|
A|----------------------------------|
E|33333333-77777777-5555555555555555|

G|----------------------------------| 1x
D|----------------------------------|
A|----------------------------------|
E|0000000000000000-33333333-55555555|

Main theme
G|----------------------------------| 2x
D|----------------------------------|
A|----------------------------------|
E|33333333-77777777-5555555555555555|

Verse
G|----------------------------------| 4x
D|-5--5-9--9-3--3-3--3--------------|
A|----------------------------------|
E|3-33-7-77-5-55-5-55---------------|

Chorus
G|----------------------------------| 3x
D|----------------------------------|
A|----------------------------------|
E|33333333-77777777-5555555555555555|

G|----------------------------------| 1x
D|----------------------------------|
A|----------------------------------|
E|0000000000000000-33333333-55555555|

Solo
G|----------------------------------| 3x
D|----------------------------------|
A|----------------------------------|
E|33333333-77777777-5555555555555555|

G|-----------------------------------| 1x
D|-----------------------------------|
A|-----------------------------------|
E|0000000000000000-33333333-55555555.|

Chorus/outro
G|----------------------------------| 3x
D|----------------------------------|
A|----------------------------------|
E|33333333-77777777-5555555555555555|

G|----------------------------------| 1x
D|----------------------------------|
A|----------------------------------|
E|0000000000000000-33333333-55555555|

End
G|----------------------------------| 
D|----------------------------------|
A|----------------------------------|
E|7---------------------------------|
Show more