Bedrooms
Deafheaven
http://www.myspace.com/deafheaven

by theorganicboy (hxchaos@hotmail.com)


Riff A:
e---7-----7-----7-----7-----7-------7---|
b-----0-----0-----0-----0-----0---------|
g---------------------------------------|
d---------------------------------------|
a---7---7-----7-----7-----7-----7---7---|
e---------------------------------------|

e---7----7------7-----7---7---7-----7---|
b-----0-----0-----0-----0---------------|
g---------------------------------------|
d---------------------------------------|
a---7---7-----7-9---9-----9---9h10------|
e----------------------------------10---|

e---5-----5-----3-----3-----3---3h5-5-----5---3-----3-----3---3---|
b-----0-----0-----0-----0-----0-------0-----0---0-----0-----0-----|
g-----------------------------------------------------------------|
d-----------------------------------------------------------------|
a---3---3-----3-3---3-----3-----3---------------------------------|
e-----------------------------------3---3-----2---2-----2-----2---|

e---/8-----8------7-----7-----7--------7---|
b------0-----0------0-----0-----0----------|
g------------------------------------------|
d------------------------------------------|
a---/7---7-9---9-10----10----10----10-10---|
e------------------------------------------|

e----7------7-------7-----7-----7----7---7---|
b------0-------0------0-----0----------------|
g--------------------------------------------|
d--------------------------------------------|
a---10---10------10-9---9-----9---9h10-------|
e---------------------------------------10---|

e---5-----5-----3-----3-----3---3h5-5-----5---3-----3-----3-------|
b-----0-----0-----0-----0-----0-------0-----0---0-----0-----0-----|
g-----------------------------------------------------------------|
d-----------------------------------------------------------------|
a---3---3-----3-3---3-----3-----3---------------------------------|
e-----------------------------------3---3-----2---2-----2-----2---|


Riff B: (x2)
e-----------------------------------------------------------------|
b-------0-----0-----0-----0---------0-----0-------0-----0---------|
g---------4-----4-----4-----4---------4-----4-------4-----4-------|
d-----2-----2-----2-----2-----2h4-0-----0-----0-4-----4-----4p0---|
a-----------------------------------------------------------------|
e---0-------------------------------------------------------------|

e-----------------------------------------------------------------|
b-----0-----0-------0-----0---------0-----0-------0-----0---------|
g-------4-----4-------4-----4---------4-----4-------4-----4-------|
d-----------------4-----4-----4p0---------------4-----4-----4p0---|
a---3-----3-----3-----------------3-----3-----3-------------------|
e-----------------------------------------------------------------|


Riff C: (x2)
e-----------------------------------------------------------------|
b---3-----3-----0-----0-----0---0h3-3-----3-----0-----0-----0-----|
g---4-4-----4-----4-----4-----4-4---4-4-----4-----4-----4-----4---|
d-----------------------------------0---0-----0-----0-----0-------|
a-----------------------------------------------------------------|
e---0---0-----0-----0-----0-----0---------------------------------|

e-------------------------------------|
b---0h3-3-----3-----0-----0-----0-----|
g---4---4-4-----4-----4-----4-----4---|
d---0---------------------------------|
a-------3---3-----3-----3-----3-------|
e-------------------------------------|

e---------------------------------------|
b---0h3-3-----3-----0-----0-----0-------|
g---4---4-4-----4-----4-----4-----4-----|
d---------------------------------------|
a---3---2---2-----2-0---0-----0-----0---|
e---------------------------------------|


Riff A:
e---7-----7-----7-----7-----7-------7---|
b-----0-----0-----0-----0-----0---------|
g---------------------------------------|
d---------------------------------------|
a---7---7-----7-----7-----7-----7---7---|
e---------------------------------------|

e---7----7------7-----7---7---7-----7---|
b-----0-----0-----0-----0---------------|
g---------------------------------------|
d---------------------------------------|
a---7---7-----7-9---9-----9---9h10------|
e----------------------------------10---|

e---5-----5-----3-----3-----3---3h5-5-----5---3-----3-----3---3---|
b-----0-----0-----0-----0-----0-------0-----0---0-----0-----0-----|
g-----------------------------------------------------------------|
d-----------------------------------------------------------------|
a---3---3-----3-3---3-----3-----3---------------------------------|
e-----------------------------------3---3-----2---2-----2-----2---|

e---8-----8------7-----7-----7--------7---|
b-----0-----0------0-----0-----0----------|
g-----------------------------------------|
d-----------------------------------------|
a---7---7-9---9-10----10----10----10-10---|
e-----------------------------------------|

e----7------7-------7-----7-----7----7---7---|
b------0-------0------0-----0----------------|
g--------------------------------------------|
d--------------------------------------------|
a---10---10------10-9---9-----9---9h10-------|
e---------------------------------------10---|

e---5-----5-----3-----3-----3---3h5-5-----5---3-----3-----3-------|
b-----0-----0-----0-----0-----0-------0-----0---0-----0-----0-----|
g-----------------------------------------------------------------|
d-----------------------------------------------------------------|
a---3---3-----3-3---3-----3-----3---------------------------------|
e-----------------------------------3---3-----2---2-----2-----2---|

End on:
e---(/7)---|
b----------|
g----------|
d----------|
a----------|
e-----0----|
Show more