Deerhunter : Agoraphobia
Tabbed by  : Hariz05 (twitter.com/CubaTryTest)
Tunning    : Standard (EADGBe)

This song is pretty simple, straight forward,
A and E from the start, F# A B E for the chorus.

[INTRO]

Cover me, come for me...

e|-----4-------2-------4-------2-|
B|---2-----2-------2-------2-----|
G|-2-----2---2---2---2---2---2---|
D|-------------------------------|
A|-------------------------------|
E|-------------------------------|
  A

e|-----3------0-------3---0-----|
B|---0----0-------0-----------4-|
G|-1----1---1---1---1---1---1---|
D|------------------------------|
A|------------------------------|
E|------------------------------|
  E

[VERSE] 

I had a dream...

e|-----4-------2-------4-------2-|
B|---2-----2-------2-------2-----|
G|-2-----2---2---2---2---2---2---|
D|-------------------------------|
A|-------------------------------|
E|-------------------------------|
  A

e|-----3------0-------3---0-----|
B|---0----0-------0-----------4-|
G|-1----1---1---1---1---1---1---|
D|------------------------------|
A|------------------------------|
E|------------------------------|
  E

[CHORUS]

Six by six enclosed...

e|-------------------------------|
B|-4-2---4-2---4-2---4-2---4-2---|
G|-----3-----3-----3-----3-----3-|
D|-------------------------------|
A|-------------------------------|
E|-------------------------------|
  F#

e|-------------------------------------|
B|-2-2-2-2-2-2-2--/44-0-0-0-0-0-0-0-0--|
G|--2-2-2-2-2-2-2-/44--1-1-1-1-1-1-1-1-|
D|-------------------------------------|
A|-------------------------------------|
E|-------------------------------------|
  A               /B  E

Repeat [INTRO], [VERSE], [CHORUS]

[BRIDGE]

(Same as [INTRO])

[OUTRO]

(Same as [CHORUS])
Show more