• Song:

    Another Hit And Run

  • Artist:

    Deff Leppard

  • Album:

    Rock Of Ages: The Defin...

This is about all I have for right know. 
I've been pretty busy lately.
I should have the rest of they song here pretty soon.

Tuning: Standard;


Intro:
Both guitars
e|--------------------------------|
B|--------------------------------|
G|2-2-2---2-2-2--2-2-2------------|
D|2-2-2---2-2-2--2-2-2------------|
A|0-0-0---0-0-0--0-0-0------------|
E|--------------------------------|

1st guitar
e|------------------------------------------------------12-12\-|
B|-13-13-13-12-12-12-15-13-13\-----13-13-13-12-12-12-15--------|
G|-------------------------------------------------------------|
D|-------------------------------------------------------------|
A|-------------------------------------------------------------|
E|-------------------------------------------------------------|

2nd guitar
e|-------------------------------------------------------------|
B|-------------------------------------------------------------|
G|---------------2-------2-2-2-----------------2---------2-2-2-|
D|---------------2-------2-2-2-----------------2---------2-2-2-|
A|-2-------------0-------0-0-0------2----------0---------0-0-0-|
E|-----3---------------------------------3---------------------|

1st guitar
e|-----------------------------------------------------12-12-|
B|-13-13-13-12-12-12-15-13-13\----13-13-13-12-12-12-15-------|
G|-----------------------------------------------------------|
D|-----------------------------------------------------------|
A|-----------------------------------------------------------|
E|-----------------------------------------------------------|

2nd guitar
e|-------------------------------------------------------------|
B|-------------------------------------------------------------|
G|----------2----------2-2-2---------------------2---------5---|
D|----------2----------2-2-2---------------------2---------5---|
A|-2--------0----------0-0-0-----2---------------0---------3---|
E|-----3------------------------------3------------------------|

1st guitar
e|-------------------------------|
B|-------3-----------------------|
G|-5--4-----5--2-----------------| repeat this a couple of times
D|---------------2---------------|
A|-----------------0-------------|
E|-------------------------------|

2nd guitar
e|-------------------------------|
B|-------------------------------|
G|--------------2-2-2------------| reapeat this a couple of times
D|--------------2-2-2------------|
A|--------------0-0-0------------|
E|-------------------------------|

e|---------------------------------------------------------------------------|
B|---------------------------------------------------------------------------|
G|--5----4----7--------2-2-2-----5---4---7---------2-2-2---------------------|x2
D|--2----2----5--------2-2-2-----2---2---5----3hb--2-2-2---------------------|
A|0----0----0----0-3hb-0-0-0---0---0---0----0------0-0-0---------------------|
E|---------------------------------------------------------------------------|

Verse:
1st guitar

e|---------------------------------------------------------------------------|
B|---------------------------------------------------------------------------|
G|--5---4----7----------2-2-2-----5----4----7--------2-2-2-------------------|
D|--2---2----5----------2-2-2-----2----2----5---3hb--2-2-2-------------------|x3
A|0---0----0----0--3hb--0-0-0--0----0-----0---0------0-0-0-------------------|
E|---------------------------------------------------------------------------|

2nd guitar
  p.m.----------|
e|---------------------------------------------------------------------------|
B|---------------------------------------------------------------------------|
G|---------------------2-2-2-----5---4----7---------2-2-2--------------------|
D|---------------------2-2-2-----2---2----5----3hb--2-2-2--------------------|x3
A|0-0-0-0-0-0-0-0--3hb-0-0-0--0----0----0----0------0-0-0--------------------|
E|---------------------------------------------------------------------------|

Both Guitars
e|---------------------------------------------------------------------------|
B|---------------------------------------------------------------------------|
G|-----------------7--------------------------------7------------------------|
D|------7-7-7-2----5--7--2--------------9-9-9-7-----5-7-5--------------------|
A|------5-5-5-0-------5--0--------------7-7-7-5-------5-3--------------------|
E|2-3-------------------------0-2-3------------------------------------------|


Chorus: Both guitars
e|---------------------------------------------------------------------------|
B|---------------------------------------------------------------------------|
G|2-2-2----5---4----7----------2-2-2-----5----4----7--------2-2-2------------|2x
D|2-2-2----2---2----5----------2-2-2-----2----2----5---3hb--2-2-2------------|
A|0-0-0--0---0----0----0--3hb--0-0-0--0----0-----0---0------0-0-0------------|
E|---------------------------------------------------------------------------|

Verse: 2

1st guitar

e|---------------------------------------------------------------------------|
B|---------------------------------------------------------------------------|
G|--5---4----7----------2-2-2-----5----4----7--------2-2-2-------------------|
D|--2---2----5----------2-2-2-----2----2----5---3hb--2-2-2-------------------|x3
A|0---0----0----0--3hb--0-0-0--0----0-----0---0------0-0-0-------------------|
E|---------------------------------------------------------------------------|

2nd guitar
  p.m.----------|
e|---------------------------------------------------------------------------|
B|---------------------------------------------------------------------------|
G|---------------------2-2-2-----5---4----7---------2-2-2--------------------|
D|---------------------2-2-2-----2---2----5----3hb--2-2-2--------------------|x3
A|0-0-0-0-0-0-0-0--3hb-0-0-0--0----0----0----0------0-0-0--------------------|
E|---------------------------------------------------------------------------|

Both Guitars
e|---------------------------------------------------------------------------|
B|---------------------------------------------------------------------------|
G|-----------------7--------------------------------7------------------------|
D|------7-7-7-2----5--7--2--------------9-9-9-7-----5-7-5--------------------|
A|------5-5-5-0-------5--0--------------7-7-7-5-------5-3--------------------|
E|2-3-------------------------0-2-3------------------------------------------|



Please Rate and Comment. I accept criticism to
************************************

| /   slide up
| \   slide down
| h   hammer-on
| p   pull-off
| ~   vibrato
| +   harmonic
| x   Mute note
| b   Bend
| pb  Pre-bend
| br  Bend release
| pbr Pre-bend release
| brb Bend release bend

************************************
Show more