• Song:

    The Sun And The Rainfall

  • Artist:

    Depeche Mode

Intro melody:
E|-------------|-------------|-------------|
B|-5---7-8-7---|-------------|-------------|
G|-----------7-|-4-----------|-------------|
D|-------------|---------5-7-|-9--7--------|
A|-------------|-------------|------7------|
E|-------------|-------------|-------------|

End of the intro melody:
E|-10---8-7----|
B|----8--------|
G|-------------|
D|-------------|
A|-------------|
E|-------------|

Melody at the end of the song (it sounds very quietly during the song fades out):
E|-------------|-------------|-------------|-------------|
B|-5-----3-----|-------------|-------------|-------------|
G|-------------|-----4-------|-------------|-------------|
D|-------------|-5-7---2-----|-5-7-9----9--|-5-----------|
A|-------------|-------------|-------7-----|-------------|
E|-------------|-------------|-------------|-------------|
Show more