• Song:

    Whats Your Name

  • Artist:

    Depeche Mode

This is the very simple 50th-style poppy song. It has only 4 chords.
In 1981 it was recorded with synths for the album "Speak & spell", but 30 years later I 
decided to correct its historical music lines and turned it back to the 50th and tried 
to arrange it for guitar :)

D                                       A
Sometimes watch you walk the street at midnight
D                                A
Sometimes I can feel you in the air
D
Looking good
E
Knew you would
B
All the time I understood


Chorus:
A                    D    E
Hey, you're such a pretty boy! ×3
            A     E
You're so pretty!


(Other part of the song plays on the same chords)


Everybody seems to look your way now
(Everybody seems to look your way)
Everybody wants to know your name
(Hey, hey, what's your name?)
Feeling right
Just tonight
Hear them say you're out of sight

Hey, you're such a pretty boy! ×3
You're so pretty!


(Instrumental part plays. It is  based in chords: D A D E B)
E|-10-9----10-9----(9)------|-10-9----10-9----(9)----|
B|------10------10-----(10)-|------10------10-----10-|

E|--------------------------|---------------------10-|
B|-12-14-p-14---------------|-10-p-10-12~-10-p-10----|

E|-9----10-9----(9)------10-|-9----10-9----(9)----12-|
B|---10------10-----(10)----|---10------10-----10----|

E|-p--12--10-p-9--10--------|-12-10----p-12~---------|
B|--------------------------|-------12---------------|


Hey, you're such a pretty boy! ×3
You're so pretty!

All the boys we got to get together
All the boys together we can stand
We can go
Never know
All the things we need to show

Hey, you're such a pretty boy! ×3
You're so pretty!

Hey you're such a pretty boy! (You're so pretty!)
Hey you're such a pretty boy! (You're so pretty!)
Hey you're such a pretty boy!
You're so pretty! (P, R, E, double T, Y!)

Hey, you're such a pretty boy! ×3
You're so pretty!
Show more