• Song:

    Im The One

  • Artist:

    Descendents

Intro
G----------8h9-8---------------|
D-------8h9-----9------8-6-8---|
A----6h7----------6--6---------|
E-0----------------------------|

G-------9----8-11-13-15-16-18-20----|
D------9----------------------------|
A-/17-------------------------------|
E-----------------------------------|

Chorus
G------------------------------------------------|
D------------------------------------------------|
A-857-3333333/10101010-857-8888888/11-11-11-11---|
E------------------------------------------------|

G---------------------------------------------|
D---------------------------------------------|
A-857-3333333-1-111-5-5-77777777-666616-18----|
E--------------------6------------------------|

Verse
G----------------------------------|
D---------------------22-----------|
A-3333333-0000000-3333--3-2320-----|
E-----------------------------30---|

G------------------------------------|
D-------------------------20---------|
A-3333333-0000000-3333333---3-532----|
E--------------------------------3---|

Pre-verse
G---------------------------------------------------------|
D----------------------------10101010-12121212-15151515---|
A---0-3---3-2---8----10--8888-----------------------------|
E-11----33----55-5-77--7----------------------------------|

G-9---8-11-13-15-16-18-20----|
D----------------------------|
A----------------------------|
E----------------------------|

Chorus

First part of verse
G------------------------20---------|
D--------------------------2320-----|
A-3333333-0000000-3333333------3----|
E-------------------------------3---|

Pre-verse x1

Chorus x1

Bridge
G----------------------------------|
D---------------------22332200-----|
A----2-5----5-4-002233--------33---|    2x
E-3-3----3-3-----------------------|

G-----------------------------|
D-5320---------20-------------|
A-----3----------353----------|
E------1111-11------1111-11---|

G-9---8-11-13-15-16-18-20----|
D----------------------------|
A----------------------------|
E----------------------------|

Ending
G------------------------------------------------|
D------------------------------------------------|
A-857-3333333/10101010-857-8888888/11-11-11-11---|
E------------------------------------------------|

G---------------------------------------|
D---------------------------------------|
A-857-3333333-1-111-5-5-77777777-6666---|
E--------------------6------------------|

G---------------------------------------------------|
D-/15-12-14-----------------------------------------|
A-----------3333333-1-111-857-8888888/11-11-11-11---|
E---------------------------------------------------|

G---------------------------------------------------|
D-------------------------------------15-12-14------|
A-857-3333333-1-111-5-5-7777777-66/18----------7----|
E--------------------6------------------------------|
Show more