• Song:

    Laminated Et Animal

  • Artist:

    Destroy Rebuild Until God Shows

Artist: D.R.U.G.S.
Song: Laminated E.T. Animal
Tabbed by: xdays_ive_diedx

Tuning: Dropped-D (DADGBE)

Key:
t= Tenth Fret
w= 12th Fret
f= 14th Fret
F= 15th Fret

Intro:
(Clean)
e|-------------------------------------------------|
B|-6---8---10---11---11-13-11-10---5---5-6-5-------|
G|-------------------------------------------6-5---|
D|-------------------------------------------------| 4x
A|-5-5-7-7--8-8-10---10-10-10-10---4---4-4-4-4-4---|
D|-------------------------------------------------|

Guitar 1
e|-----------------------|
B|-----------------------|
G|-----------------------|
D|-12\0--12-12\0--12\0---| 4x
A|-12\0--12-12\0--12\0---|
D|-12\0--12-12\0--12\0---|

Guitar 2
e|-----------------------|
B|-6------6--6-----6-----|
G|-7------6--7-----7-----| 
D|-7------7--7-----7-----| 4x
A|----0--------0-----0---|
D|----0--------0-----0---|

Verse

Guitar 2
e|-------------------------------------------------|
B|-6-------------6-----6------------6--------8-----|
G|-------7---------7---------7--------7--------9---|
D|-----7-----8-------------7-----------------------|
A|-------------------------------------------------|
D|-------------------------------8-------10--------|

e|-------------------------------------------------------------|
B|-6-------------6-----6------------6--------8-------6---------|
G|-------7---------7---------7--------7--------9-------7-------|
D|-----7-----8-------------7-----------------------------------|
A|-------------------------------------------------------------|
D|-------------------------------8-------10-------8-------10---|

Guitar 1
e|------------------------------------------17----18---|
B|---------------------------------------15----17------|
G|-----------------------------------------------------|
D|-----------------------------------------------------|
A|-----------------------------------------------------|
D|-----------------------------------------------------|

(starts when gtr 2 plays the 6, ends before the 8)
e|-------------------------------------------------------------|
B|-6--6--6--6--6--6--6--6--6--6--6--6--------------------------|
G|-7--7--7--7--7--7--7--7--7--7--7--7--------------------------|
D|-7--7--7--7--7--7--7--7--7--7--7--7--------------------------|
A|-------------------------------------------------------------|
D|-------------------------------------------------------------|

Chorus (2x)

Guitar 1 (2nd time no mutes on the 5s)
e|-------------------------------------------------------------------|
B|-------------------------------------------------------------------|
G|-7-7-7-7-7-7-7-7-7-7-7-7-7-7-7-7-t-t-t-t-t-t-t-t-w-w-w-w-w-w-w-w---|
D|-x-x-x-x-x-x-x-x-x-x-x-x-x-x-x-x-x-x-x-x-x-x-x-x-x-x-x-x-x-x-x-x---|
A|-5-5-5-5-5-5-5-5-5-5-5-5-5-5-5-5-8-8-8-8-8-8-8-8-t-t-t-t-t-t-t-t---|
D|-------------------------------------------------------------------|

e|-----------------------------------------------------------------------|
B|-----------------------------------------------------------------------|
G|-14-14-14-14---14-14-14-14---14-14---15-15-15-15-15-15-15-15-----------|
D|--x--x--x--x----x--x--x--x----x--x----x--x--x--x--x--x--x--x-5-5-5-5---|
A|-12-12-12-12---12-12-12-12---12-12---13-13-13-13-13-13-13-13-5-5-5-5---|
D|-------------------------------------------------------------5-5-5-5---|
                                                                 P P P

Guitar 2
e|-------------------------------------------------------------------|
B|-------------------------------------------------------------------|
G|-------------------------------------------------------------------|
D|-0-0-0-0-0-0-0-0-0-0-0-0-0-0-0-0-3-3-3-3-3-3-3-3-5-5-5-5-5-5-5-5---|
A|-0-0-0-0-0-0-0-0-0-0-0-0-0-0-0-0-3-3-3-3-3-3-3-3-5-5-5-5-5-5-5-5---|
D|-0-0-0-0-0-0-0-0-0-0-0-0-0-0-0-0-3-3-3-3-3-3-3-3-5-5-5-5-5-5-5-5---|

e|-----------------------------------------------------------|
B|-----------------------------------------------------------|
G|-----------------------------------------------------------|
D|-0-0-0-0-0-0-0-0-0-0-0-0-0-0-0-0-8-8-8-8-8-8-8-8-5-5-5-5---|
A|-0-0-0-0-0-0-0-0-0-0-0-0-0-0-0-0-8-8-8-8-8-8-8-8-5-5-5-5---|
D|-0-0-0-0-0-0-0-0-0-0-0-0-0-0-0-0-8-8-8-8-8-8-8-8-5-5-5-5---|
                                                     P P P
2nd part of Intro Again

Verse Again

Chorus Again

Bridge

Guitar 1
e|-------8-------8-------8-------8-------8-------8-------8-------8---|
B|----10------10------10------10------10------10------10------10-----|
G|-10------10------10------10------10------10------10------10--------|
D|-------------------------------------------------------------------|
A|-------------------------------------------------------------------|
D|-------------------------------------------------------------------|

e|------8------8------8------8------8------8------8------8---|
B|---10-----10-----10-----10-----10-----10-----10-----10-----|
G|-9------9------9------9------9------9------9------9--------| 2x
D|-----------------------------------------------------------|
A|-----------------------------------------------------------|
D|-----------------------------------------------------------|

e|----------------------------------------------------------------|
B|----------------------------------------------------6-----------|
G|------------------------------------------------------7---------|
D|-0---------------8---------------0------------------------------|
A|-0---------------8---------------0------------------------------|
D|-0---------------8---------------0-------------8-----------10---|

Guitar 2
e|-------------------------------------------------------------------|
B|-------------------------------------------------------------------|
G|-------------------------------------------------------------------|
D|-0-0-0-0-0-0-0-0-0-0-0-0-0-0-0-0-3-3-3-3-3-3-3-3-3-3-3-3-3-3-3-3---|
A|-0-0-0-0-0-0-0-0-0-0-0-0-0-0-0-0-3-3-3-3-3-3-3-3-3-3-3-3-3-3-3-3---|
D|-0-0-0-0-0-0-0-0-0-0-0-0-0-0-0-0-3-3-3-3-3-3-3-3-3-3-3-3-3-3-3-3---|

e|----------------------------------------------------------------------|
B|----------------------------------------------------------------------|
G|-5-5-5-5-5-5-5-5-5-5-5-5-5-5-5-5--------------------------------------|
D|-5-5-5-5-5-5-5-5-5-5-5-5-5-5-5-5-5-5-5-5-5-5-5-5-5-5-5-5-5-5-5-5------|2x
A|-3-3-3-3-3-3-3-3-3-3-3-3-3-3-3-3-5-5-5-5-5-5-5-5-5-5-5-5-5-5-5-5------|
D|---------------------------------5-5-5-5-5-5-5-5-5-5-5-5-5-5-5-5------|

e|----------------------------------------------------------------|
B|---------------------6----------------6---------------6---------|
G|-----------------------7----------------7---------------7-------|
D|-0----------------------------------------------8---------------|
A|-0--------------------------------------------------------------|
D|-0---------------8---------------8-------------------------10---|

Chorus Again

First Part of Bridge Again

End with:

Guitar 1
e|-------------|
B|-6-6---6-6---|
G|-7-7---7-7---|
D|-7-7---7-7---|
A|-------------|
D|-------------|

Guitar 2
e|-------------|
B|-------------|
G|-------------|
D|-0-0---0-0---|
A|-0-0---0-0---|
D|-0-0---0-0---|
Show more