sponsored links
Magic Hour  -  dEUS

-----
Bass
-----

tab by Avi

Verse - 
   ___________   _______
  /  4 times  \ /4 times\
G|-------------|---------|
D|-------------|---------|
A|------10-10--|----9----|
E|--7-8--------|--6---7--|

Bridge - 
   ______________
  /    twice     \ 
G|----------------|------|
D|----------------|------|
A|----------------|--10--|
E|-8-8-8-10-10-10-|------|

play the verse again

and then - 
   ______________
  /    4 times   \ 
G|----------------|
D|----------------|
A|----------------|
E|-8-8-8-10-10-10-|

Chorus -   
   _____________                           _____________     
  / this twice  \                         / play twice  \         
G|-------|-------|-------|-------|-------|-------|-------|
D|-------|-------|-------|-------|-------|-------|-------|
A|-------|-3-3-3-|-------|-------|-3-3-3-|-------|-3-3-3-|
E|-3-3-3-|-------|-3-3-3-|-5-5-5-|-------|-3-3-3-|-------|
                   _________   _____   _____
                  / 4 times \ /twice\ /twice\
G|-------|-------|-----------|-------|-------|
D|-------|-------|-----------|-------|-------|
A|-------|-------|-----10-10-|-----9-|---9---|
E|-3-3-3-|-5-5-5-|-7-8-------|-6-7---|-6---7-|

and then play the verse and the bridge again, and then...

Outro - 
G|---------|---------|---------|---------|
D|---------|---------|---------|---------|
A|---------|-3-3-3-3-|---------|-5-5-5-5-|
E|-0-0-0-0-|---------|-2-2-2-2-|---------|

that?s about it ! :-))
Show more
sponsored links
sponsored links