• Song:

    Doosdronk

  • Artist:

    Die Antwoord

> = slide

Intro:
G|---------------------------------------------------------------------------|
D|---------------------------------------------------------------------------|
A|--9-----9-------9-------9-------14------14-------9----------9999-----------|
E|-----9------9-------9-------9-------14------14--------9--------------------|
Kicks right into verse
Verse:
G|---------------------------------------------------------------------------|
D|---------------------------------------------------------------------------|
A|-7>9-----7>9-----7>9-----7>9----12>14-----12>14------7>9---7>9-------------|
E|-----7>9-----7>9-----7>9----7>9------12>14-----12>14----7>9---7>9----------|
Repeat

Chorus:
G|---------------------------------------------------------------------------|
D|---------------------------------------------------------------------------|
A|-9--11-12-12-11-9-12-12-11-11-9-8---9--11-12-12-11-9-12-12-11-11-----------|
E|--9----------------------------------9--------------------------9-13-13-14-|

Enjoy!
-Tabbed by Jeff Hendrickson
Show more