• Song:

    Rich Bitch

  • Artist:

    Die Antwoord

Die Antwoord - Rich Bitch

Just the different riffs, not in a specific order. Figure it out, it's easy.

Intro (Not bass, but you can still play along for fun):

G|-11-13-10-12-12-10-12------------------------------------------------------|
D|------------------------13-15-10-12-13-12-13-------------------------------|
A|---------------------------------------------------------------------------|
E|---------------------------------------------------------------------------|

Verse:

G|---------------------------------------------------------------------------|
D|-4-6-3-5-------------4-6-3-5-----------------------------------------------|
A|-----------6-8-3-6-------------6-8-3-5-6-5-3-------------------------------|
E|---------------------------------------------------------------------------|

Chorus:

G|---------------------------------------------------------------------------|
D|-4-6-3-5-------------------4-6-3-5-----------------------------------------|
A|-----------6-8-3-5-6-5-3-------------6-8-3-5-6-5-3-------------------------|
E|---------------------------------------------------------------------------|

Sometimes there's a break in the song:

G|---------------------------------------------------------------------------|
D|-4-6-3-5-------------------------------------------------------------------|
A|------------3~-------------------------------------------------------------|
E|---------------------------------------------------------------------------|
Show more