• Song:

    Free And Easy

  • Artist:

    Dierks Bentley

-------------------------------------------------------------------------------
			     SONG NAME - Band Name
-------------------------------------------------------------------------------

Tabbed By :4ply87 
e-mail: ljbridgman@hotmail.com
This isn't played exactly like the album version but its fairly close. Let me know what you think.
Tuning: Standard
Rest until drums kick in
Intro
G|---------------------------------------------------------------------------|
D|--------------------------------------------------4-----4~-----------------|
A|----2------2--2--3--4-----4----4--2-----2----2-------4---------------------|
E|--------2--------------4-----4-------2-----2-------------------------------|
Verse 1/Last Verse              x2
G|-------------------------------|-------------------------------------------|
D|----4---4/9-----9/13\11--11\4--|---9/13\11---11\4--------------------------|
A|-------------------------------|-------------------------------------------|
E|-------------------------------|-------------------------------------------|
Verse 2 and 3                                     Play this x2 at "free and easy...
G|-----------------------------------------------|---------------------------|
D|---4------4----4-------------------------------|---------------4---4-------|
A|------4------4------2-----2--2-3--4-----4---4--|-2-----2---2-----4---------|
E|-----------------------2-------------4----4----|----2----2-----------------|
Chorus x2
G|------------------------------------------|--------------------------------|
D|---------------4--4------------4--4-------|--------------------------------|
A|---2--2-----------------2--2-----------4~-|--------------------------------|
E|------------------------------------------|--------------------------------|

| /  slide up
| \  slide down
| h  hammer-on
| p  pull-off
| ~  vibrato
| +  harmonic
| x  Mute note
===============================================================================
Show more