• Song:

    Highway Robbery

  • Artist:

    Dillinger Escape Plan

  • Album:

    Miss Machine

Tuning: Standard


|---------------------------------------------------|
|---------------------------------------------------|
|---------------------------------------------------|
|-2222222222222222222222222222222222222222222222222-|


|-------------------------------------------------------------|
|-----------------------------------------------2-------------|
|-----------------3-3-3-3-1-1-----------------3---3-2-1-1-1-1-|
|-3-3-3-3-2-2-2-2-------------3-3-3-3-2-2-2-2-----------------|x2

|-----------------------------------------------------------------|
|-----------------------------------------------2-----------------|
|-----------------3-3-3-3-1-1-----------------3---3-2-1-1---------|
|-3-3-3-3-2-2-2-2-------------3-3-3-3-2-2-2-2-------------2-2-1-1-|

|-----------------|
|-0-0-0-0-0-0-0-0-|
|-----------------|
|-----------------|


|---------------------------------|
|-----------------0-0-0-0-0-0-0-0-|
|---------------------------------|
|-1-1-1-4---4-0-------------------|x3

|-----------------|
|-----------------|
|-----------------|
|-1-1-1-4---4-0---|


|-------------------------------------------------------------|
|-----------------------------------------------2-------------|
|-----------------3-3-3-3-1-1-----------------3---3-2-1-1-1-1-|
|-3-3-3-3-2-2-2-2-------------3-3-3-3-2-2-2-2-----------------|

|-----------------------------------------------------------------|
|-----------------------------------------------2-----------------|
|-----------------3-3-3-3-1-1-----------------3---3-2-1-1---------|
|-3-3-3-3-2-2-2-2-------------3-3-3-3-2-2-2-2-------------2-2-1-1-|

|-----------------|
|-0-0-0-0-0-0-0-0-|
|-----------------|
|-----------------|


|---------------------------------|
|-----------------0-0-0-0-0-0-0-0-|
|---------------------------------|
|-1-1-1-4---4-0-------------------|

|---------------------------|
|---------------------------|
|---------------------------|
|-1-1-1-4---4-0---1---4--1--|


|---------------------------------------------------------|
|-------------------------------------------0~--------0~--|
|---------------------------------------------------------|
|-8-8-8~------4-4-4~------8-8-8~------2-2-2-----2-2-2-----|

|-----------------------------------------------------------------|
|-----------------------------------------------------------------|
|-----------------------------------------------------------------|
|-8-8-8-8-8-8-8-8-8-8-8-8-8-8-8-8-4-4-4-4-4-4-4-4-4-4-4-4-4-2-2-2-|

|---------------------------------|
|-----------------0-0-0-0-1-1-1-1-|
|---------------------------------|
|-8-8-8-8-8-8-8-8-----------------|


|-------------------------------------------------------------|
|-----------------------------------------------2-------------|
|-----------------3-3-3-3-1-1-----------------3---3-2-1-1-1-1-|
|-3-3-3-3-2-2-2-2-------------3-3-3-3-2-2-2-2-----------------|

|-----------------------------------------------------------------|
|-----------------------------------------------2-----------------|
|-----------------3-3-3-3-1-1-----------------3---3-2-1-1---------|
|-3-3-3-3-2-2-2-2-------------3-3-3-3-2-2-2-2-------------2-2-1-1-|

|-----------------|
|-0-0-0-0-0-0-0-0-|
|-----------------|
|-----------------|


|---------------------------------|
|-----------------0-0-0-0-0-0-0-0-|
|---------------------------------|
|-1-1-1-4---4-0-------------------|

|---------------------------------|
|---------------------------------|
|-----------------x-x-x-x-x-x-x-x-|
|-1-1-1-4---4-0-------------------|

|---------------------------------|
|-----------------0-0-0-0-0-0-0-0-|
|---------------------------------|
|-1-1-1-4---4-0-------------------|

|---------------------------|
|---------------------------|
|---------------------------|
|-1-1-1-4---4-0---1---4--1--|


|---------------------------------------------------------|
|-------------------------------------------0~--------0~--|
|---------------------------------------------------------|
|-8-8-8~------4-4-4~------8-8-8~------2-2-2-----2-2-2-----|

|-----------------------------------------------------------------|
|-----------------------------------------------------------------|
|-----------------------------------------------------------------|
|-8-8-8-8-8-8-8-8-8-8-8-8-8-8-8-8-4-4-4-4-4-4-4-4-4-4-4-4-4-2-2-2-|

|-----------------------------------------------------|
|-----------------0-0-0-0-1-1-1-1-------0~--------0~--|
|-----------------------------------------------------|
|-8-8-8-8-8-8-8-8-----------------2-2-2-----2-2-2-----|


|----------------------------------------------------------|
|----------------------------------------------------------|
|----------------------------------------------------------|
|-22222222222222222222222222222222222222222222222222222222-|


Drum/Guitar break.


|---------------------------------------------------------|
|-------------------------------------------0~--------0~--|
|---------------------------------------------------------|_________         
|-8-8-8~------4-4-4~------8-8-8~------2-2-2-----2-2-2-----|         \
                                                                     \
|-----------------------------------------------------------------|   x2
|-----------------------------------------------------------------|  /
|-----------------------------------------------------------------| /
|-8-8-8-8-8-8-8-8-8-8-8-8-8-8-8-8-4-4-4-4-4-4-4-4-4-4-4-4-4-2-2-2-|/
                                                           _______/
|-----------------------------------------------------|   /
|-----------------0-0-0-0-1-1-1-1-------0~--------0~--|  /
|-----------------------------------------------------| /
|-8-8-8-8-8-8-8-8-----------------2-2-2-----2-2-2-----|/
Show more