• Song:

    Panasonic Youth

  • Artist:

    Dillinger Escape Plan

  • Album:

    Miss Machine

Tuning: Standard
High to Low (G, D, A, E)


*Listen closely for rythym.
|--------------------------------------------------------------------|
|--------------------------------------------------------------------|
|--------------------------------------------------------------------|
|-4--44--44--4-4-4-4--4--4444-4--4-44-4-4--44--44--4-4-4-4--4-4444-4-|

|--------------------------------------|
|--------------------------------------|
|----------4------4------4------4------|
|-44-4-44-----3-4----3-4----3-4----3-4-|

|----------------------------------------------------------------------|
|----------------------------------------------------------------------|
|------------------------------------------4------4------4------4------|
|-4--44--44--4-4-4-4--4--4444-4--44-4-44------3-4----3-4----3-4----3-4-|


|--------|
|--------|
|-4------|
|----3-4-|x3

|--------|
|--------|
|-4---4--|
|---3----|

|--------|   
|--------|   
|-4------|   
|----3-4-|x7

|--------|
|--------|
|-4---4--|
|---3----|

|--------|
|--------|
|-4------|
|----3-4-|x3

|--------|
|--------|
|-4---4--|
|---3----|

|--------|
|--------|
|-4------|
|----3-4-|x3

|-----|
|-----|
|-4---|
|---3-|

|--------|
|--------|
|-4------|
|----3-4-|x3

|--------|
|--------|
|-4---4--|
|---3----|

|--------|
|--------|
|-4------|
|----3-4-|x2

|------------------|
|------------------|
|-7-6-5-6-5-4------|
|------------------|


|----------------------------------------------------|
|----------------------------------------------------|
|-----------4-3-1------------------------------------|
|-1-1-1-1-1-------0-0-0-0-0-4-4-4-1-0-1--4--1-0-1-4--|
                                                   
|-----------------------------------------|       
|-------------------------5---------5-----|     
|-----------4-3-1-3---3-----3---3-----3---|    
|-1-1-1-1-1---------1---1-----1---1-----1-|

|----------------------------------------------------|
|----------------------------------------------------|
|-----------4-3-1------------------------------------|
|-1-1-1-1-1-------0-0-0-0-0-4-4-4-1-0-1--4--1-0-1-4--|
                                                   
|-----------------|       
|-----------------|
|-----------4-3-1-|
|-1-1-1-1-1-------|


|---------------------------------|\
|---------5---------5-------------| \
|-3---3-----3---3-----3---3---4---|  \
|---1---1-----1---1-----1---1---1-|   \
                                       \
|---------------------------------|     \
|---------5---------5---4-------4-|      \
|-3---3-----3---3---------2---2---|       \
|---1---1-----1---1---0-----0-----|        \
                                            x2
|---------------------------------|        /
|---------5---------5-------------|       /
|-3---3-----3---3-----3---4---4---|      /
|---1---1-----1---1-----1---1---1-|     /
                                       /
|---------------------------------|   /
|---------5---------5---4-------4-|  /
|-3---3-----3---3---------2---2---| / 
|---1---1-----1---1---0-----0-----|/


|-------------------------------------------------------|
|-------------------------------------------------------|
|-------------------------------------------------------|
|-1-0-1--x--1-0-1-x--1-0-1--x--1-0-1--1--1--x--1-0-1-x--|

|-------------------------------------------------------|
|-------------------------------------------------------|
|-------------------------------------------------------|
|-1-0-1--x--1-0-1-x--1-0-1--x--1-0-1--1--1--x--1-0-1/4--|

|-------------------------------------------------------|
|-------------------------------------------------------|
|-------------------------------------------------------|
|-1-0-1-/4--1-0-1/4--1-0-1-/4--1-0-1--1--1-/4--1-0-1/4--|

|---------------------------------------------|
|---------------------------------------------|
|---------------------------------------------|
|-1-0-1-/4--1-0-1/4--1-0-1--1--1-/4--1-0-1/4--|

|---------------------------------|
|---------------------------------|
|-----------4-3-1-----------------|
|-1-1-1-1-1-------0-0-0-0-0-4-4-4-|


|------------------------------|
|------------------------------|
|------------------------------|
|-1-1-1-3--4--0--0-0-0-0-0-0-0-|x7

|------------------------------|
|------------------------------|
|------------------------------|
|-1-1-1-3--4--0--0-0-0---------|

|------------------------------|
|------------------------------|
|------------------------------|
|-1-1-1-3--4--0--0-0-0-0-0-0-0-|x3


|-----------------3-3-------------|
|---------------------3-3---------|
|---------------------------------|
|-x-x-x-x-x-x-x-x---------1-1-1-1-|


|---------------------------------------------------------|
|---------------------------------------------------------|
|---------------------------------------------------777-7-|
|-1-1-1-3--4--0--0-0-0-0-0-0-0-1-1-1-3--4--0--0-0-0-------|

|------------------------------|
|------------------------------|
|------------------------------|
|-1-1-1-3--4--0--0-0-0-0-0-0-0-|x2

|------------------------------|
|------------------------------|
|------------------------------|
|-1-0-1-3--4--0--0-0-0-0-0-0-0-|x3

|------------------------------|
|------------------------------|
|------------------------------|
|-1-0-1-3--4----0--------------|


If anything's wrong, please don't hesitate to correct me.
Hope you enjoy!
Show more