• Song:

    Phone Home

  • Artist:

    Dillinger Escape Plan

  • Album:

    Miss Machine

Phone Home                                    
The Dillinger Escape Plan




     W                   W                   W                 
G||-------------------|-------------------|-------------------|
D||-------------------|-------------------|-------------------|
A||-------------------|-------------------|-------------------|
D||-------------------|-------------------|-------------------|


  W                   W                   W                   W                 
-------------------|-------------------|-------------------|-------------------|
-------------------|-------------------|-------------------|-------------------|
-------------------|-------------------|-------------------|-------------------|
-------------------|-------------------|-------------------|-------------------|


  W                   W                   W                   W                 
-------------------|-------------------|-------------------|-------------------|
-------------------|-------------------|-------------------|-------------------|
-------------------|-------------------|-------------------|-------------------|
-------------------|-------------------|-------------------|-------------------|


  W                   W                   W                   W                 
-------------------|-------------------|-------------------|-------------------|
-------------------|-------------------|-------------------|-------------------|
-------------------|-------------------|-------------------|-------------------|
-------------------|-------------------|-------------------|-------------------|


  W                   W                   W                   W                 
-------------------|-------------------|-------------------|-------------------|
-------------------|-------------------|-------------------|-------------------|
-------------------|-------------------|-------------------|-------------------|
-------------------|-------------------|-------------------|-------------------|


  W                   W                   W                   W                 
-------------------|-------------------|-------------------|-------------------|
-------------------|-------------------|-------------------|-------------------|
-------------------|-------------------|-------------------|-------------------|
-------------------|-------------------|-------------------|-------------------|


  W                   W                   W                   W                 
-------------------|-------------------|-------------------|-------------------|
-------------------|-------------------|-------------------|-------------------|
-------------------|-------------------|-------------------|-------------------|
-------------------|-------------------|-------------------|-------------------|


           <                                          <         
  H        H           H        E  Q.        H        H         
--------------------|---------------------|--------------------|
--------------------|---------------------|--------------------|
--------------------|---------------------|--------------------|
-----------0--------|--L--------0--3------|-----------0--------|


                                 <                               
  H        E  Q.        H        H           H        E  Q.      
---------------------|--------------------|---------------------|
---------------------|--------------------|---------------------|
---------------------|--------------------|---------------------|
--L--------0--3------|-----------0--------|--L--------0--3------|


           <                                          <         
  H        H           H        E  Q.        H        H         
--------------------|---------------------|--------------------|
--------------------|---------------------|--------------------|
--------------------|---------------------|--------------------|
-----------0--------|--L--------0--3------|-----------0--------|


                                 <                               
  H        E  Q.        H        H           H        E  Q.      
---------------------|--------------------|---------------------|
---------------------|--------------------|---------------------|
---------------------|--------------------|---------------------|
--L--------0--3------|-----------0--------|--L--------0--3------|


           <                                          <         
  H        H           H        E  Q.        H        H         
--------------------|---------------------|--------------------|
--------------------|---------------------|--------------------|
--------------------|---------------------|--------------------|
-----------0--------|--L--------0--3------|-----------0--------|


                                 <                               
  H        E  Q.        H        H           H        E  Q.      
---------------------|--------------------|---------------------|
---------------------|--------------------|---------------------|
---------------------|--------------------|---------------------|
--L--------0--3------|-----------0--------|--L--------0--3------|


           <                                          <         
  H        H           H        E  Q.        H        H         
--------------------|---------------------|--------------------|
--------------------|---------------------|--------------------|
--------------------|---------------------|--------------------|
-----------0--------|--L--------0--3------|-----------0--------|


  H        E  Q.        W                   W                 
---------------------|-------------------|-------------------|
---------------------|-------------------|-------------------|
---------------------|-------------------|-------------------|
--L--------0--3------|-------------------|-------------------|


  E  E  E  E  E  E  E  E     E  E  E  E  E  E  E  E   
--------------------------|--------------------------|
--------------------------|--------------------------|
--5--5--5--5-----5--5--5--|--5--5--5-----5--5--5--5--|
--------------------------|--------------------------|


  E  E  E  E  E  E  E  E     E  E  E  E  E  E  E  E   
--------------------------|--------------------------|
--------------------------|--------------1--1--1--1--|
--------------------------|--3--3--3--3--------------|
--5--5--5--5--6--6--6--6--|--------------------------|


  E  E  E  E  E  E  E  E     E  E  E  E  E  E  E  E   
--------------------------|--------------------------|
--------------------------|--------------------------|
--5--5--5--5-----5--5--5--|--5--5--5-----5--5--5--5--|
--------------------------|--------------------------|


  E  E  E  E  E  E  E  E     E  E  E  E  E  E  E  E   
--------------------------|--------------------------|
--------------------------|--------------1--1--1--1--|
--------------------------|--3--3--3--3--------------|
--5--5--5--5--6--6--6--6--|--------------------------|


  E  E  E  E  E  E  E  E     E  E  E  E  E  E  E  E   
--------------------------|--------------------------|
--------------------------|--------------------------|
--5--5--5--5-----5--5--5--|--5--5--5-----5--5--5--5--|
--------------------------|--------------------------|


  E  E  E  E  E  E  E  E     E  E  E  E  E  E  E  E   
--------------------------|--------------------------|
--------------------------|--------------1--1--1--1--|
--------------------------|--3--3--3--3--------------|
--5--5--5--5--6--6--6--6--|--------------------------|


  E  E  E  E  E  E  E  E     E  E  E  E  E  E  E  E   
--------------------------|--------------------------|
--------------------------|--------------------------|
--5--5--5--5-----5--5--5--|--5--5--5-----5--5--5--5--|
--------------------------|--------------------------|


                                                                 <         
  E  E  E  E  E  E  E  E     E  E  E  E  E  E  E  E     H        H         
--------------------------|--------------------------|--------------------|
--------------------------|--------------1--1--1--1--|--------------------|
--------------------------|--3--3--3--3--------------|--------------------|
--5--5--5--5--6--6--6--6--|--------------------------|-----------0--------|


                                 <                               
  H        E  Q.        H        H           H        E  Q.      
---------------------|--------------------|---------------------|
---------------------|--------------------|---------------------|
---------------------|--------------------|---------------------|
--L--------0--3------|-----------0--------|--L--------0--3------|


           <                                          <         
  H        H           H        E  Q.        H        H         
--------------------|---------------------|--------------------|
--------------------|---------------------|--------------------|
--------------------|---------------------|--------------------|
-----------0--------|--L--------0--3------|-----------0--------|


                                 <                               
  H        E  Q.        H        H           H        E  Q.      
---------------------|--------------------|---------------------|
---------------------|--------------------|---------------------|
---------------------|--------------------|---------------------|
--L--------0--3------|-----------0--------|--L--------0--3------|


           <                                          <         
  H        H           H        E  Q.        H        H         
--------------------|---------------------|--------------------|
--------------------|---------------------|--------------------|
--------------------|---------------------|--------------------|
-----------0--------|--L--------0--3------|-----------0--------|


                                 <                               
  H        E  Q.        H        H           H        E  Q.      
---------------------|--------------------|---------------------|
---------------------|--------------------|---------------------|
---------------------|--------------------|---------------------|
--L--------0--3------|-----------0--------|--L--------0--3------|


           <                                          <         
  H        H           H        E  Q.        H        H         
--------------------|---------------------|--------------------|
--------------------|---------------------|--------------------|
--------------------|---------------------|--------------------|
-----------0--------|--L--------0--3------|-----------0--------|


                                 <                               
  H        E  Q.        H        H           H        E  Q.      
---------------------|--------------------|---------------------|
---------------------|--------------------|---------------------|
---------------------|--------------------|---------------------|
--L--------0--3------|-----------0--------|--L--------0--3------|


  E  E  E  E  E  E  E  E     E  E  E  E  E  E  E  E   
--------------------------|--------------------------|
--------------------------|--------------------------|
--5--5--5--5-----5--5--5--|--5--5--5-----5--5--5--5--|
--------------------------|--------------------------|


  E  E  E  E  E  E  E  E     E  E  E  E  E  E  E  E   
--------------------------|--------------------------|
--------------------------|--------------1--1--1--1--|
--------------------------|--3--3--3--3--------------|
--5--5--5--5--6--6--6--6--|--------------------------|


  E  E  E  E  E  E  E  E     E  E  E  E  E  E  E  E   
--------------------------|--------------------------|
--------------------------|--------------------------|
--5--5--5--5-----5--5--5--|--5--5--5-----5--5--5--5--|
--------------------------|--------------------------|


  E  E  E  E  E  E  E  E     E  E  E  E  E  E  E  E   
--------------------------|--------------------------|
--------------------------|--------------1--1--1--1--|
--------------------------|--3--3--3--3--------------|
--5--5--5--5--6--6--6--6--|--------------------------|


  E  E  E  E  E  E  E  E     E  E  E  E  E  E  E  E   
--------------------------|--------------------------|
--------------------------|--------------------------|
--5--5--5--5-----5--5--5--|--5--5--5-----5--5--5--5--|
--------------------------|--------------------------|


  E  E  E  E  E  E  E  E     E  E  E  E  E  E  E  E   
--------------------------|--------------------------|
--------------------------|--------------1--1--1--1--|
--------------------------|--3--3--3--3--------------|
--5--5--5--5--6--6--6--6--|--------------------------|


  E  E  E  E  E  E  E  E     E  E  E  E  E  E  E  E   
--------------------------|--------------------------|
--------------------------|--------------------------|
--5--5--5--5-----5--5--5--|--5--5--5-----5--5--5--5--|
--------------------------|--------------------------|


  E  E  E  E  E  E  E  E     E  E  E  E  E  E  E  E     W                 
--------------------------|--------------------------|-------------------|
--------------------------|--------------1--1--1--1--|-------------------|
--------------------------|--3--3--3--3--------------|-------------------|
--5--5--5--5--6--6--6--6--|--------------------------|-------------------|


  Q.     Q.     Q       H        H           Q.     Q.     E  E   
---------------------|--------------------|----------------------|
---------------------|--------------------|----------------------|
---------------------|--------------------|----------------------|
--3------4------2----|--L--------3--------|--L------2------x--x--|


  Q.     Q.     Q       Q.     Q.     Q       H        H         
---------------------|---------------------|--------------------|
---------------------|---------------------|--------------------|
---------------------|---------------------|--------------------|
--3------5------4----|--3------4------2----|--L--------3--------|


  Q.     Q.     E  E     Q.     Q.     Q       Q.     Q.     Q     
----------------------|---------------------|---------------------|
----------------------|---------------------|---------------------|
----------------------|---------------------|---------------------|
--L------2------x--x--|--3------5------4----|--3------4------2----|


  H        H           Q.     Q.     E  E     Q.     Q.     Q     
--------------------|----------------------|---------------------|
--------------------|----------------------|---------------------|
--------------------|----------------------|---------------------|
--L--------3--------|--L------2------x--x--|--3------5------4----|


  Q.     Q.     Q       H        H           Q.     Q.     E  E   
---------------------|--------------------|----------------------|
---------------------|--------------------|----------------------|
---------------------|--------------------|----------------------|
--3------4------2----|--L--------3--------|--L------2------x--x--|


  Q.     Q.     Q       E  E  E  E  E  E  E  E     E  E  E  E  E  E  E  E   
---------------------|--------------------------|--------------------------|
---------------------|--------------------------|--------------------------|
---------------------|--5--5--5--5-----5--5--5--|--5--5--5-----5--5--5--5--|
--3------5------4----|--------------------------|--------------------------|


  E  E  E  E  E  E  E  E     E  E  E  E  E  E  E  E     W                  
--------------------------|--------------------------|-------------------||
--------------------------|--------------1--1--1--1--|-------------------||
--------------------------|--3--3--3--3--------------|-------------------||
--5--5--5--5--6--6--6--6--|--------------------------|-------------------||




Duration Legend
---------------
W - whole
H - half
Q - quarter
E - 8th
S - 16th
T - 32nd
X - 64th
. - note dotted
|-n-|  - n-tuplets


Tablature Legend
----------------
L - tied note
x - dead note
g - grace note
(n) - ghost note
> - accentuded note
NH - natural harmonic
AH - artificial harmonic
TH - tapped harmonic
SH - semi harmonic
PH - pitch harmonic
h - hammer on
p - pull off
b - bend
br - bendRelease
pb - preBend
pbr - preBendRelease
brb - bendReleaseBend
\n/ - tremolo bar dip
\n - tremolo bar dive
-/n - tremolo bar Release up
/n\ - tremolo bar inverted dip
/n - tremolo bar return
-\n - tremolo bar Release down
S - shift slide
s - legato slide
/ -  slide into from below or out of upwards
\ -  slide into from above or out of downwards
~ - vibrato
W - wide vibrato
tr - trill
TP - tremolo picking
T - tapping
S - slap
P - pop
< - fade in
^ - brush up
v - brush down
Show more