• Song:

    Setting Fire To Sleeping Giants

  • Artist:

    Dillinger Escape Plan

  • Album:

    Miss Machine

Tuning: Standard


|---------------------------------|
|---------------------------------|
|---------------------------7---7-|
|-5-5-5-8-5-5-5-7-7-7-5-7-8---7---|x7

|---------------------------|
|---------------------------|
|---------------------------|
|-5-5-5-8-5-5-5-7-------12\-|


|---------------------------------|
|---------------------------------|
|---------------------------7---7-|
|-5-5-5-8-5-5-5-7-7-7-5-7-8---7---|x4


|---------------------------------|
|---------------------------------|
|---------------------------7---7-|
|-5-5-5-8-5-5-5-7-7-7-5-7-8---7---|x8


|---------------------------------|
|---------------------------------|
|---------------------------7---7-|
|-5-5-5-8-5-5-5-7-7-7-5-7-8---7---|x4


|-----------------------------------------------------------------|
|-----------------------------------------------------------------|
|---------------------------------0-0-0-0-0-0-0-0-----------------|
|-1-1-1-1-1-1-1-1-0-0-0-0-0-0-0-0-----------------3-3-3-3-3-3-3-3-|

|---------------------------|
|---------------------------|
|---------------------------|
|-1--1-1-1-1-1-1--0-0--0--0-|


|-----------------------------------|
|-----------------------------------|
|-2-2---5-5---4-4---1-1---2---5---4-|
|-----0-----0-----0-----0---0---0---|

|-----------------------------------|
|-----------------------------------|
|-2-2---5-5---4-4---1---1-----2---5-|
|-----0-----0-----0---0---0-0---0---|

|-----------------------------------|
|-----------------------------------|
|-2-2---5-5---4-4---1-1---2---5---4-|
|-----0-----0-----0-----0---0---0---|

|-----------------------------------------------|
|-----------------------------------------------|
|-2-2---5-5---4-4---1---1-----2---5-----6---9---|
|-----0-----0-----0---0---0-0---0---0-0---0---0-|


|----------------------------------------------------|
|----------------------------------------------3-----|
|-------3--------------3----3-3--3-3--3--3---3----5--|
|-5---5---5--5--5--5-5---5---------------------------|

|---------------------------------------------|
|---------------------------------------------|
|---------------------------------------------|
|-1---1-1-3--4-1---1-3~---4---4-4~---4~-------|

|----------------------------------------------------|
|----------------------------------------------3-----|
|-------3--------------3----3-3--3-3--3--3---3----5--|
|-5---5---5--5--5--5-5---5---------------------------|

|------------------------------------------|
|------------------------------------------|
|------------------------------------------|
|-1---1-1-3--4-1---1-3~---4---4/6\4~-------|


*Rest for awile.
|----------------------|
|----------------------|
|----------------------|
|-5-5-5-5-5-5----------|x3

|-----------------------------------|
|-----------------------------------|
|--------------------------------7\-|
|-5-5-5-5-5-5----------5~-----------|


|---------------------------------|
|---------------------------------|
|---------------------------7---7-|
|-5-5-5-8-5-5-5-7-7-7-5-7-8---7---|x4


|--------------------------------------------------------------------|
|--------------------------------------------------------------------|
|--------------------------------------------------------------------|
|-1-1-1-1-1-1-1-1-0-0-0-0-0-0-0-0-5--5---5--5-3---3--3---1-1-1-1---1-|

|---------------|
|---------------|
|---------------|
|-0-0--0-0--0-0-|

|--------------------------------------------------------------------|
|--------------------------------------------------------------------|
|--------------------------------------------------------------------|
|-5-5-5-5-5-5-5-5-3-3-3-3-3-3-3-3-1--1---1--1-0---0--0---5--5---5--5-|

|------------------------------------------|
|------------------------------------------|
|------------------------------------------|
|-3---3--3---1-1-1-1-1-1-1-0-0-0-0-0-0-0-0-|


|-----------------------------------------------------------------|
|-----------------------------------------------------------------|
|-2-2---5-5---4-4---1-1---2---5---4-2-2---5-5---4-4---1---1-----2-|
|-----0-----0-----0-----0---0---0-------0-----0-----0---0---0-0---|
                     \
|-----------------|   x3
|-----------------|  /
|---5-----6---9---| /
|-0---0-0---0---0-|/ 


|-----------------------------------------------------------------|
|-----------------------------------------------------------------|
|-2-2---5-5---4-4---1-1---2---5---4-2-2---5-5---4-4---1---1-----2-|
|-----0-----0-----0-----0---0---0-------0-----0-----0---0---0-0---|

|----------------|
|----------------|
|---5-----6---9x-|
|-0---0-0---0----|
Show more