• Song:

    Sugar Coated Sour

  • Artist:

    Dillinger Escape Plan

  • Album:

    Calculating Infinity

Sugar Coated Sour                                 
The Dillinger Escape Plan
Bass



                     E  E  S E  E  S    E  S E  E  S E     S E  S E  E  S S  
G||-------|-------|------------------|------------------|-------------------|
D||-------|-------|------------------|------------------|-------------------|
A||-------|-------|------------------|------------------|-------------------|
E||-------|-------|--1--1----1--1----|--1----1--1----1--|----1----1--1----1-|


  S E  S E  E  S S    S E  S E  S E  S    S S E  S E  S E     E  S E  E  S  
-------------------|-------------------|-------------------|---------------|
-------------------|-------------------|-------------------|---------------|
-------------------|-------------------|-------------------|---------------|
--L-1----1--1----1-|--L-1----1----1--1-|--L---1----1----1--|--1----1--1----|


  E  E  E.  E.     E  E  E.  E.     E  E  E.  E.     E  E  E.  E.   
----------------|----------------|----------------|----------------|
----------------|----------------|----------------|----------------|
-----6----------|-----6----------|-----6----------|-----6----------|
--5-----5---4---|--5-----5---4---|--5-----5---4---|--5-----5---4---|


  E  E  E  E     E  E  S E  E  S E     S E  E  S E  S E  S    E  E  E.  E.   
--------------|---------------------|----------------------|----------------|
--------------|---------------------|----------------------|----------------|
--------6--6--|---------------------|----------------------|-----6----------|
--5--5--------|--1--1----1--1----1--|----1--1----1----1--L-|--5-----5---4---|


  E  E  E.  E.     E  E  E  E     E  E  S E  E  S    E  S E  E  S E   
----------------|--------------|------------------|------------------|
----------------|--------------|------------------|------------------|
-----6----------|--------6--6--|------------------|------------------|
--5-----5---4---|--5--5--------|--1--1----1--1----|--1----1--1----1--|


  S E  S E  E  S S    S E  S E  E  S S    S E  S E  E  S S    S E  S E  S E  S  
-------------------|-------------------|-------------------|-------------------|
-------------------|-------------------|-------------------|-------------------|
-------------------|-------------------|-------------------|-------------------|
----1----1--1----1-|--L-1----1--1----1-|--L-1----1--1----1-|--L-1----1----1--1-|


  S S E  S E  S E     E  S E  E.  S    E.  E.  E.  E.     E  E  E  E  E  Q     
-------------------|----------------|------------------|----------------------|
-------------------|----------------|------5-------5---|----------------------|
-------------------|----------------|--4-------4-------|--6--6--6--6--6--6----|
--L---1----1----1--|--1----1--1-----|------------------|----------------------|


-------|-------|-------|-------|-------|-------|-------|-------|
-------|-------|-------|-------|-------|-------|-------|-------|
-------|-------|-------|-------|-------|-------|-------|-------|
-------|-------|-------|-------|-------|-------|-------|-------|


  W                   H        H           W                 
-------------------|--------------------|-------------------|
-------------------|-----------9--------|--L----------------|
-------------------|--------------------|-------------------|
-------------------|--------------------|-------------------|


  W                   W                   H        H         
-------------------|-------------------|--------------------|
--L----------------|--L----------------|--L-----------------|
-------------------|-------------------|--------------------|
-------------------|-------------------|-----------5--------|


  H        H           H        H           H        H         
--------------------|--------------------|--------------------|
--------------------|--------------------|--------------------|
--------------------|--------------------|--------------------|
--L--------4--------|--L--------3--------|--L--------9--------|


  W                   W                   H.           E                 
-------------------|-------------------|------------------|-----|-------|
-------------------|-------------------|------------------|-----|-------|
-------------------|-------------------|------------------|-----|-------|
--L----------------|--L----------------|--L------------L--|-----|-------|


  E  E.  E.  E  E.  E.  E  E.  E.  E  E     E  E.  E.  E  E.  E.  E  E.  E.   
-----------------------------------------|-----------------------------------|
-----------------------------------------|-----------------------------------|
--6--6-------6--6-------6--6-------6-----|--6--6-------6--6-------6--6-------|
-----------------------------------------|-----------------------------------|


  E  E  E     E  E.  E.  E  E.  E.  E  E.  E.  E  E   
-----------|-----------------------------------------|
--5--5--5--|-----------------------------------------|
-----------|--6--6-------6--6-------6--6-------6-----|
-----------|-----------------------------------------|


  E  E.  E.  E  E.  E.  E  E.  E.  E  E   
-----------------------------------------|
-----------------------------------------|
--3--3-------3--3-------1--1-------1-----|
-----------------------------------------|


  E  E.  E.  E  E.  E.  E  E.  E.  E  E     E  E.  E.  E  E.  E.  E  E.  E.   
-----------------------------------------|-----------------------------------|
-----------------------------------------|-----------------------------------|
--6--6-------6--6-------6--6-------6-----|--6--6-------6--6-------6--6-------|
-----------------------------------------|-----------------------------------|


  E  E  E     E  E.  E.  E  E.  E.  E  E.  E.  E  E   
-----------|-----------------------------------------|
--5--5--5--|-----------------------------------------|
-----------|--6--6-------6--6-------6--6-------6-----|
-----------|-----------------------------------------|


  E  E.  E.  E  E.  E.  E  E.  E.  E  E     W                 
-----------------------------------------|-------------------|
-----------------------------------------|-------------------|
--3--3-------3--3-------1--1-------1-----|-------------------|
-----------------------------------------|-------------------|


  E  S S S S Q    S S    E  S S S S Q    S S    E  S S S S Q    S S  
----------------------|----------------------|----------------------|
----------------------|----------------------|----------------------|
----------------------|----------------------|----------------------|
--0--L-0-L-0-L----0-L-|--0--L-0-L-0-L----0-L-|--0--L-0-L-0-L----0-L-|


  Q    S S    E  S S S S Q    S S    E  S S S S Q    S S  
-----------|----------------------|----------------------|
-----------|----------------------|----------------------|
-----------|----------------------|----------------------|
--0----0-L-|--0--L-0-L-0-L----0-L-|--0--L-0-L-0-L----0-L-|


  E  S S S S Q    S S    Q    S S    E  S S S S Q    S S  
----------------------|-----------|----------------------|
----------------------|-----------|----------------------|
----------------------|-----------|----------------------|
--0--L-0-L-0-L----0-L-|--0----0-L-|--0--L-0-L-0-L----0-L-|


  E  S S S S Q    S S    Q       E  E.  E.  E  E.  E.  E  E.  E.  E  E   
----------------------|-------|-----------------------------------------|
----------------------|-------|-----------------------------------------|
----------------------|-------|--3--3-------3--3-------1--1-------1-----|
--0--L-0-L-0-L----0-L-|--0----|-----------------------------------------|


  Q    Q    Q.     Q.        Q    Q    Q.     Q.      
--------------------------|--------------------------|
--------------------------|--------------------------|
-------6------------------|-------6------------------|
--5---------5------4------|--5---------5------4------|


  Q    Q    Q.     Q.        Q    Q    Q.     Q.      
--------------------------|--------------------------|
--------------------------|--------------------------|
-------6------------------|-------6------------------|
--5---------5------4------|--5---------5------4------|


  E  E  E  E  E.  Q    E.  E     E  E  E  E  E.  Q    E.  E   
------------------------------|------------------------------|
------------------------------|------------------------------|
--3--3--3--3--6--------5------|--3--3--3--3--6--------5------|
------------------------------|------------------------------|


  E  E  E  E  E.  Q    E.  E     E  E  E  E  E.  Q    E.  E   
------------------------------|------------------------------|
------------------------------|------------------------------|
--3--3--3--3--6--------5------|--3--3--3--3--6--------5------|
------------------------------|------------------------------|


  E  E  E  E.  Q    E.     E  E  E  E  E  E  E  E  E  E   
------------------------|--------------------------------|
------------------------|--------------------------------|
--6--6--6--6--------6---|--------------------------6--6--|
------------------------|--6--6--6--4--4--4--6--6--------|


  E  E  E  E  E  E  E  E  E  E     E  E  E  E  E  E  E  E  E  E   
--------------------------------|--------------------------------|
--------------------------------|--------------------------------|
--------------------------6--6--|--------------------------6--6--|
--6--6--6--4--4--4--6--6--------|--6--6--6--4--4--4--6--6--------|


  E  E  E  E  E  E  E  E  E  E     E  E  E  E     E.  E.  E.  E.  E  E  E  E   
--------------------------------|--------------|------------------------------|
--------------------------------|--------------|------------------------------|
--------------------------6--6--|--------6--6--|--7-------7-------7-----7-----|
--6--6--6--4--4--4--6--6--------|--6--6--------|------------------------------|


  E.  E.  E.  E.  E  E  E  E     E.  E.  E.  E.  E  E  E  E   
------------------------------|------------------------------|
------------------------------|------------------------------|
--7-------7-------7-----7-----|--7-------7-------7-----7-----|
------------------------------|------------------------------|


  E.  E.  E.  E.  E  E  E  E     Q    Q       E.  E.  E.  E.  E  E  E  E   
------------------------------|------------|------------------------------|
------------------------------|------------|------------------------------|
--7-------7-------7-----7-----|-------5----|--7-------7-------7-----7-----|
------------------------------|--1---------|------------------------------|


  E.  E.  E.  E.  E  E  E  E     H           E.  E.  E.  E.  E  E  E  E   
------------------------------|-----------|------------------------------|
------------------------------|-----------|------------------------------|
--7-------7-------7-----7-----|-----------|--7-------7-------7-----7-----|
------------------------------|-----------|------------------------------|


  E.  E.  E.  E.  E  E  E  E     Q    Q       E.  E.  E.  E.  E  E  E  E   
------------------------------|------------|------------------------------|
------------------------------|------------|------------------------------|
--7-------7-------7-----7-----|-------5----|--7-------7-------7-----7-----|
------------------------------|--1---------|------------------------------|


  E.  E.  E.  E.  E  E  E  E     H           E.  E.  E.  E.  E  E  E  E   
------------------------------|-----------|------------------------------|
------------------------------|-----------|------------------------------|
--7-------7-------7-----7-----|-----------|--7-------7-------7-----7-----|
------------------------------|-----------|------------------------------|


  E.  E.  E.  E.  E  E  E  E     Q    Q       E.  E.  E.  E.  E  E  E  E   
------------------------------|------------|------------------------------|
------------------------------|------------|------------------------------|
--7-------7-------7-----7-----|-------5----|--7-------7-------7-----7-----|
------------------------------|--1---------|------------------------------|


  E.  E.  E.  E.  E  E  E  E     H           E.  E.  E.  E.  E  E  E  E   
------------------------------|-----------|------------------------------|
------------------------------|-----------|------------------------------|
--7-------7-------7-----7-----|-----------|--7-------7-------7-----7-----|
------------------------------|-----------|------------------------------|


  E.  E.  E.  E.  E  E  E  E     Q    Q       E.  E.  E.  E.  E  E  E  E   
------------------------------|------------|------------------------------|
------------------------------|------------|------------------------------|
--7-------7-------7-----7-----|-------5----|--7-------7-------7-----7-----|
------------------------------|--1---------|------------------------------|


  E.  E.  E.  E.  E  E  E  E     H           E.  E.  E.  E.  E  E  E  E   
------------------------------|-----------|------------------------------|
------------------------------|-----------|------------------------------|
--7-------7-------7-----7-----|-----------|--7-------7-------7-----7-----|
------------------------------|-----------|------------------------------|


  E.  E.  E.  E.  E  E  E  E     Q    Q       E.  E.  E.  E.  E  E  E  E   
------------------------------|------------|------------------------------|
------------------------------|------------|------------------------------|
--7-------7-------7-----7-----|-------5----|--7-------7-------7-----7-----|
------------------------------|--1---------|------------------------------|


  E.  E.  E.  E.  E  E  E  E     E.  E.  E.  E.  E  E  E  E   
------------------------------|------------------------------|
------------------------------|------------------------------|
--7-------7-------7-----7-----|--7-------7-------7-----7-----|
------------------------------|------------------------------|


  W                Q       E.  E.  E  H.             
------------------------|--------------------------||
------------------------|--------------------------||
------------------------|--7-----------------------||
------------------------|--------------------------||




Duration Legend
---------------
W - whole
H - half
Q - quarter
E - 8th
S - 16th
T - 32nd
X - 64th
. - note dotted
|-n-|  - n-tuplets


Tablature Legend
----------------
L - tied note
x - dead note
g - grace note
(n) - ghost note
> - accentuded note
NH - natural harmonic
AH - artificial harmonic
TH - tapped harmonic
SH - semi harmonic
PH - pitch harmonic
h - hammer on
p - pull off
b - bend
br - bendRelease
pb - preBend
pbr - preBendRelease
brb - bendReleaseBend
\n/ - tremolo bar dip
\n - tremolo bar dive
-/n - tremolo bar Release up
/n\ - tremolo bar inverted dip
/n - tremolo bar return
-\n - tremolo bar Release down
S - shift slide
s - legato slide
/ -  slide into from below or out of upwards
\ -  slide into from above or out of downwards
~ - vibrato
W - wide vibrato
tr - trill
TP - tremolo picking
T - tapping
S - slap
P - pop
< - fade in
^ - brush up
v - brush down
Show more