• Song:

    Sugar Coated Sour

  • Artist:

    Dillinger Escape Plan

  • Album:

    Calculating Infinity

-----------------------------------------------------------------
Sugar Coated Sour solo/interlude - The Dillinger Escape Plan
-----------------------------------------------------------------
Tabbed by: Nate Messina
Email: nate.messina@gmail.com

Tuning: Standard (EADGBe)

0:38                               ~ 
e|---------------------------------------------------------------|
B|---------------------------------------------------------------|
G|-------------------------3-4-6-7-8-----------------------------|
D|-----------------2-3-5-6---------------------------------------|
A|---------1-2-4-5-----------------------------------------------|
E|-0-1-3-4-------------------------------------------------------|
PM---------------------------------

0:40
e|-------------------------------6-8-7-9-5-----------------------|
B|----------7-8-10-9-8-7-6-8-7-9---------------------------------|
G|-7-8-10-9------------------------------------------------------|
D|---------------------------------------------------------------|
A|---------------------------------------------------------------|
E|---------------------------------------------------------------|

0:43                                                  T
e|---------------------------------------------------------------------|
B|------------7-10-9-8-5-6-----6/9--------------9h12-18p12p9-----------|
G|----------8--------------7-------10--------10--------------10--------|
D|--------9------------------9--------12--12--------------------12-9\6-|
A|-7h9h10--------------------------------------------------------------|
E|---------------------------------------------------------------------|



| / slide up
| \ slide down
| h hammer-on
| p pull-off
| ~ vibrato
| + harmonic
| x Mute note
Show more