• Song:

    Unretrofied

  • Artist:

    Dillinger Escape Plan

  • Album:

    Miss Machine

Unretrofied                                   
The Dillinger Escape Plan
Bass



     W                   W                   W                 
G||-------------------|-------------------|-------------------|
D||-------------------|-------------------|-------------------|
A||-------------------|-------------------|-------------------|
E||-------------------|-------------------|-------------------|
B||-------------------|-------------------|-------------------|


  W                   S S S S S S S S S S S S S S S S  
-------------------|----------------------------------|
-------------------|----------------------------------|
-------------------|--4-4-4-4-4-4-4-4-4-4-4-4-4-4-4-4-|
-------------------|----------------------------------|
-------------------|----------------------------------|


  S S S S S S S S S S S S S S S S    S S S S S S S S S S S S S S S S  
----------------------------------|----------------------------------|
----------------------------------|----------------------------------|
--0-0-0-0-0-0-0-0-0-0-0-0-0-0-----|----------------------------------|
------------------------------4-4-|--2-2-2-2-2-2-2-2-2-2-2-2-2-2-2-2-|
----------------------------------|----------------------------------|


  S S S S S S S S   S S S S S S S S    S S S S S S S S S S S S S S S S  
------------------------------------|----------------------------------|
------------------4g6-6-6-6-6-6-6-6-|--------------------------2-------|
--4-4-4-4-4-4-4-4-------------------|--4-4-4-4-4-4-4-4-4-2-4-4---4-4-2-|
------------------------------------|----------------------------------|
------------------------------------|----------------------------------|


  S S S S S S S S S S S S S S S S    S S S S S S S S S S S S S S S S  
--------------------2-2---2-2-1-1-|----------------------------------|
----------------------------------|----------------------------------|
--0-0-0-0-0-0-0-0-0-----0---------|----------------------------------|
----------------------------------|--2-2-2-2-2-2-2-2-2-2-2-2-2-4-4-4-|
----------------------------------|----------------------------------|


  S S S S S S S S S S S S S S S S    T  T T T  T T  E   S S S S S S S S S S S  
----------------------------------|-------------------------------------------|
----------------------------------|-----------------------------------2-------|
----------------------------------|--2h-4---4p-2-2h-4s--L-L-2-L-2-4-----4-2-4-|
--------------------------0-0-2-2-|-------------------------------------------|
--2-2-2-2-2-2-2-2-2-2-4-4---------|-------------------------------------------|


  T  T T T T T  S S S S S S X T. X T. X T. E  E   
-------------------------------------------------|
-------------------------------------------------|
--2h-4---4---2h-4--------------------------------|
----------------------------5----5----5----5--4--|
-------------------------------------------------|


  T  T T T  T T  S S S S S S S S S E  E   
-----------------------------------------|
-----------------------------------------|
--2h-4---4p-2-2h-4-----------------------|
-----------------------------------2--4--|
-----------------------------------------|


              PM                        
  T  T T T  T T  S S S S S E  E  E  E   
---------------------------------------|
---------------------------------------|
--2h-4---4p-2-2------------------------|
---------------------------------0--2--|
-----------------2---------2--4--------|


  T  T T T  T T  S S S S S S S S S S S S S    S S S S S S S S S S S S E  E   
-------------------------------------------|--------------------------------|
-------------------2-----------------2-----|--------------------------------|
--2h-4---4p-2-2h-4---4-2-4-------2-4---4-2-|--------------------------------|
-------------------------------------------|--5-----5---5-------------5--4--|
-------------------------------------------|--------------------------------|


  T  T T T T T T  S T S S S S S S S S S E     S S S S S S S S E  E  E  E   
-------------------------------------------|------------------------------|
--------------------------------------2----|------------------------------|
--2h-4---4---2-2h-4---------------2-4------|------------------------------|
----------------------------------------2--|------------------------0--2--|
-------------------------------------------|--2-----2---2-----2--4--------|


  S S S S S S S S S S S S S S S S    S S S S S S S S S S S S S S S S  
----------------------------------|----------------------------------|
----------------------------------|----------------------------------|
--4-4-4-4-4-4-4-4-4-4-4-4-4-4-4-4-|--0-0-0-0-0-0-0-0-0-0-0-0-0-0-----|
----------------------------------|------------------------------4-4-|
----------------------------------|----------------------------------|


  S S S S S S S S S S S S S S S S    S S S S S S S S   S S S S S S S S  
----------------------------------|------------------------------------|
----------------------------------|------------------4g6-6-6-6-6-6-6-6-|
----------------------------------|--4-4-4-4-4-4-4-4-------------------|
--2-2-2-2-2-2-2-2-2-2-2-2-2-2-2-2-|------------------------------------|
----------------------------------|------------------------------------|


  S S S S S S S S S S S S S S S S    S S S S S S S S S S S S S S S S  
----------------------------------|--------------------2-2---2-2-1-1-|
--------------------------2-------|----------------------------------|
--4-4-4-4-4-4-4-4-4-2-4-4---4-4-2-|--0-0-0-0-0-0-0-0-0-----0---------|
----------------------------------|----------------------------------|
----------------------------------|----------------------------------|


  S S S S S S S S S S S S S S S S    S S S S S S S S S S S S S S S S  
----------------------------------|----------------------------------|
----------------------------------|----------------------------------|
----------------------------------|----------------------------------|
--2-2-2-2-2-2-2-2-2-2-2-2-2-4-4-4-|--------------------------0-0-2-2-|
----------------------------------|--2-2-2-2-2-2-2-2-2-2-4-4---------|


  T  T T T  T T  S S S S S S S S T T S S S S  
---------------------------------------------|
-------------------2---------2---4---4-2-----|
--2h-4---4p-2-2h-4---4-2-4---------------4-2-|
---------------------------------------------|
---------------------------------------------|


  S S S S S S S T T S S E  S S S S  
-----------------------------------|
----------------4---4---2--------2-|
---------------------------4-2-----|
--5-----5---5----------------------|
-----------------------------------|


  S S S S S S S S S S S S X T. X T. X T. X T.    S S S S S S S S E  E  E  E   
----------------------------------------------|------------------------------|
----------------------------------------------|------------------------2--4--|
----------------------------------------------|--4-----4---4-----4--6--------|
--5-----5---5-------------2----2----4----4----|------------------------------|
----------------------------------------------|------------------------------|


  T  T T T  T T  S S S S S S S S T T S S S S    S S S S S S S S S S S S E  E   
---------------------------------------------|--------------------------------|
-------------------2---------2---4---4-2-----|--------------------------------|
--2h-4---4p-2-2h-4---4-2-4---------------4-2-|--------------------------------|
---------------------------------------------|--5-----5---5-------------2--4--|
---------------------------------------------|--------------------------------|


  S S S S S S S S S S S S T T T T S S    T  T T T  T T  S S S S S E  E  E  E   
--------------------------------------|---------------------------------------|
--------------------------------------|---------------------------------------|
--------------------------4---4-------|--2h-4---4p-2-2h-4---------------------|
--2-----2---2-------------------------|---------------------------------0--4--|
--------------------------------------|---------------------------2--4--------|


  S S S S S S S S S S S S S S S S    S S S S S S S S S S S S S S S S  
----------------------------------|----------------------------------|
----------------------------------|----------------------------------|
--4-4-4-4-4-4-4-4-4-4-4-4-4-4-4-4-|--0-0-0-0-0-0-0-0-0-0-0-0-0-0-----|
----------------------------------|------------------------------4-4-|
----------------------------------|----------------------------------|


  S S S S S S S S S S S S S S S S    S S S S S S S S   S S S S S S S S  
----------------------------------|------------------------------------|
----------------------------------|------------------4g6-6-6-6-6-6-6-6-|
----------------------------------|--4-4-4-4-4-4-4-4-------------------|
--2-2-2-2-2-2-2-2-2-2-2-2-2-2-2-2-|------------------------------------|
----------------------------------|------------------------------------|


  S S S S S S S S S S S S S S S S    S S S S S S S S S S S S S S S S  
----------------------------------|--------------------2-2---2-2-1-1-|
--------------------------2-------|----------------------------------|
--4-4-4-4-4-4-4-4-4-2-4-4---4-4-2-|--0-0-0-0-0-0-0-0-0-----0---------|
----------------------------------|----------------------------------|
----------------------------------|----------------------------------|


  S S S S S S S S S S S S S S S S    S S S S S S S S S S S S S S S S  
----------------------------------|----------------------------------|
----------------------------------|----------------------------------|
----------------------------------|----------------------------------|
--2-2-2-2-2-2-2-2-2-2-2-2-2-4-4-4-|--------------------------0-0-4-4-|
----------------------------------|--2-2-2-2-2-2-2-2-2-2-4-4---------|


  S S S S S S S S S S S S S S S S S S    S S S S S S S S S S E   S S  
--------------------------------------|------------------------------|
--------------------------------------|------------------------------|
--5---5-6---6-4-------4---5---5---5---|------------------------------|
----5-----6-----4---4---4---5---5---5-|------------------------------|
------------------2-------------------|--3-----4---------6-6-6\------|


  S S S S S S S S S S S S S S S S S S    S S S S S S S S S S S  
--------------------------------------|------------------------|
--------------------------------------|------------------------|
--5---5-6---6-4-------4---5---5---5---|------------------------|
----5-----6-----4---4---4---5---5---5-|------------------------|
------------------2-------------------|--3-----4---------6-6-6-|


  S S S S S S S S S S S S S S S  S S S    S S S S S S S S S S S  
---------------------------------------|------------------------|
---------------------------------------|------------------------|
--5---5-6---6-4-------4---5---5\-L-L-L-|------------------------|
----5-----6-----4---4---4---5----------|------------------------|
------------------2--------------------|--3-----4---------6-6-6-|


  S S S S S S S S S S S S S S S S S S    S S S S S S S S S S Q.       
--------------------------------------|------------------------------|
--------------------------------------|------------------------------|
--5---5-6---6-4-------4---5---5---5---|--5---5-6-------6-------------|
----5-----6-----4---4---4---5---5---5-|----5-----6---6---------------|
------------------2-------------------|------------4-----6-6-6\------|


  W                   W                   W                   W                 
-------------------|-------------------|-------------------|-------------------|
-------------------|-------------------|-------------------|-------------------|
-------------------|-------------------|-------------------|-------------------|
-------------------|-------------------|-------------------|-------------------|
-------------------|-------------------|-------------------|-------------------|


  W                   W                   W                   W                 
-------------------|-------------------|-------------------|-------------------|
-------------------|-------------------|-------------------|-------------------|
-------------------|-------------------|-------------------|-------------------|
-------------------|-------------------|-------------------|-------------------|
-------------------|-------------------|-------------------|-------------------|


                      S S S S S S S S S S S S S S S S  
-------------------|----------------------------------|
-------------------|----------------------------------|
-------------------|--4-4-4-4-4-4-4-4-4-4-4-4-4-4-4-4-|
-------------------|----------------------------------|
-------------------|----------------------------------|


  S S S S S S S S S S S S S S S S    S S S S S S S S S S S S S S S S  
----------------------------------|----------------------------------|
----------------------------------|----------------------------------|
--0-0-0-0-0-0-0-0-0-0-0-0-0-0-----|----------------------------------|
------------------------------4-4-|--2-2-2-2-2-2-2-2-2-2-2-2-2-2-2-2-|
----------------------------------|----------------------------------|


  S S S S S S S S   S S S S S S S S    S S S S S S S S S S S S S S S S  
------------------------------------|----------------------------------|
------------------4g6-6-6-6-6-6-6-6-|--------------------------2-------|
--4-4-4-4-4-4-4-4-------------------|--4-4-4-4-4-4-4-4-4-2-4-4---4-4-2-|
------------------------------------|----------------------------------|
------------------------------------|----------------------------------|


  S S S S S S S S S S S S S S S S    S S S S S S S S S S S S S S S S  
--------------------2-2---2-2-1-1-|----------------------------------|
----------------------------------|----------------------------------|
--0-0-0-0-0-0-0-0-0-----0---------|----------------------------------|
----------------------------------|--2-2-2-2-2-2-2-2-2-2-2-2-2-4-4-4-|
----------------------------------|----------------------------------|


  S S S S S S S S S S S S S S S S    S S S S S S S S S S S S S S S S  
----------------------------------|----------------------------------|
----------------------------------|----------------------------------|
----------------------------------|--4-4-4-4-4-4-4-4-4-4-4-4-4-4-4-4-|
--------------------------0-0-2-2-|----------------------------------|
--2-2-2-2-2-2-2-2-2-2-4-4---------|----------------------------------|


  S S S S S S S S S S S S S S S S    S S S S S S S S S S S S S S S S  
----------------------------------|----------------------------------|
----------------------------------|----------------------------------|
--0-0-0-0-0-0-0-0-0-0-0-0-0-0-----|----------------------------------|
------------------------------4-4-|--2-2-2-2-2-2-2-2-2-2-2-2-2-2-2-2-|
----------------------------------|----------------------------------|


  S S S S S S S S   S S S S S S S S    S S S S S S S S S S S S S S S S  
------------------------------------|----------------------------------|
------------------4g6-6-6-6-6-6-6-6-|--------------------------2-------|
--4-4-4-4-4-4-4-4-------------------|--4-4-4-4-4-4-4-4-4-2-4-4---4-4-2-|
------------------------------------|----------------------------------|
------------------------------------|----------------------------------|


  S S S S S S S S S S S S S S S S    S S S S S S S S S S S S S S S S  
--------------------2-2---2-2-1-1-|----------------------------------|
----------------------------------|----------------------------------|
--0-0-0-0-0-0-0-0-0-----0---------|----------------------------------|
----------------------------------|--2-2-2-2-2-2-2-2-2-2-2-2-2-4-4-4-|
----------------------------------|----------------------------------|


  S S S S S S S S S S S S S S S S    W                   W                 
----------------------------------|-------------------|-------------------|
----------------------------------|-------------------|-------------------|
----------------------------------|-------------------|-------------------|
--------------------------0-0-4-4-|-------------------|-------------------|
--2-2-2-2-2-2-2-2-2-2-4-4---------|-------------------|-------------------|


  W                   W                   W                 
-------------------|-------------------|-------------------|
-------------------|-------------------|-------------------|
-------------------|-------------------|-------------------|
-------------------|-------------------|-------------------|
-------------------|-------------------|-------------------|


-------------------||
-------------------||
-------------------||
-------------------||
-------------------||




Duration Legend
---------------
W - whole
H - half
Q - quarter
E - 8th
S - 16th
T - 32nd
X - 64th
. - note dotted
|-n-|  - n-tuplets


Tablature Legend
----------------
L - tied note
x - dead note
g - grace note
(n) - ghost note
> - accentuded note
NH - natural harmonic
AH - artificial harmonic
TH - tapped harmonic
SH - semi harmonic
PH - pitch harmonic
h - hammer on
p - pull off
b - bend
br - bendRelease
pb - preBend
pbr - preBendRelease
brb - bendReleaseBend
\n/ - tremolo bar dip
\n - tremolo bar dive
-/n - tremolo bar Release up
/n\ - tremolo bar inverted dip
/n - tremolo bar return
-\n - tremolo bar Release down
S - shift slide
s - legato slide
/ -  slide into from below or out of upwards
\ -  slide into from above or out of downwards
~ - vibrato
W - wide vibrato
tr - trill
TP - tremolo picking
T - tapping
S - slap
P - pop
< - fade in
^ - brush up
v - brush down
Show more