• Song:

    Ti Si Mi U Mislima

  • Artist:

    Dino Dvornik

  • Album:

    Vidi ove pisme... The B...

G:-------------------------|------------------------|
D:-------------------------|------------------------|
A:-------------------------|--------------------3-5-|
E:-----5---3---5---5-5-3-0-|----5---3---5---5-5-----|

G:-------------------------|------------------------|
D:-------------------------|------------------------|
A:-------------------------|--------------------3-5-|
E:-----5---3---5---5-5-3---|----5---3---5---5-5-----|

G:--------------------------|--------------------------|
D:--------------------------|--------------------------|
A:--------------------------|--------------------------|
E:-----1---0---1---0-0--1-1-|-----1---0---1---0-0--1-2-|

G:--------------------------|--------------------------|
D:--------------------------|--------------------------|
A:--------------------------|--------------------------|
E:--3---1---3-3--1-1--3-1---|--3---1---3-3--0-0--3-4---|

play it funky and fast! ;)

ubacujte neke svoje varijacija po zelji... nemojte striktno da se drzite ove tablature.
pozdrav!



http://www.last.fm/music/Dino+Dvornik
Show more