• Song:

    Rise Up

  • Artist:

    Disciple

  • Album:

    Rise Up

Tabbed By: rahkshinaw
youtube.com/user/rahkshinaw
esrock.net

Tuning: Drop C
intro

|---------------------------|
|1-1-1-1-1-1-1-1-1-1-1-1-1-1|
|---------------------------|
|---------------------------|

|-----------------------|
|-----------------------|
|-----------------------|
|0-0-2-2h3-3-3p2-2-2-2-0|

|--------------------------|
|---------------------1-1-1|
|--------------------------|
|0-0-2-2h3-3-3p2-2-2-2-----|

verse (not sure about this)

|---------------------------------------|
|---------------------------------------|
|-------------------------------10-10-10|
|0-0-0-0-0-0-0-0-0-0-0-0-0-0-0-0--------|

prechorus

|-------------------------------------|
|---------------------------------1---|
|-------------------------------------|
|0-0-0-----------------------0-0-----0|

chorus

|--------------------------|
|-------1-1-1--------1-1-1-|
|--------------------------|
|0-0-0----------0-0--------|

intro
verse
pre
chorus
intro
verse
chorus

|------------------------|
|-------1----1----1-----1|
|------------------------|
|0-0-0----0----0-----0---|
Show more