• Song:

    Southern Hospitality

  • Artist:

    Disciple

  • Album:

    Southern Hospitality

Artist-Disciple
Song-Southern Hospitality Intro
Album-Southern Hospitality

/or\=slide
b=bend
r=release
+=pre-bend
h=hammer-on
p=pull-off
Drop C-CGCFAD lowest to highest

Intro:
Guitar1
D|----------------------------------------------------|
A|----------------------------------------------------|
F|----------------------------------------------------|
C|----------------------------------------------------|        plays throughout intro
G|----------------------------------------------------|
C|---12-10-5b6r5-6-5-3-0-3-5-6-5-3--------------------|

Guitar 2
Starts on Guitar 1’s 3rd time through.
This is played moderately slowly.
D|------------------------------------------------------|
A|---+8r-8r-8r-8r-8r-8r-8r-8r-8-6-8-6-3p1h3-------------|
F|------------------------------------------------------|
C|------------------------------------------------------|
G|------------------------------------------------------|
C|------------------------------------------------------|
                            ^
            slowly release bend

Guitar 2
Starts on Guitar 1’s 5th time through.
D|---8b---fade-out------|
A|----------------------|
F|----------------------|
C|----------------------|
G|----------------------|
C|----------------------|

Guitar 2
Starts halfway through Guitar 1’s 7th time through.
This part was pretty hard to hear above Kevin’s voice and the drums, but
I got most of it right.
D|---15-13-------------------------------------------|
A|-----------13-15-13---11---------------------------|
F|-----------------------12--10----------------------|
C|---------------------------------12-8--------------|
G|----------------------------------------8-10v\-----|
C|---------------------------------------------------|

I waited till somebody else tabbed To Know That You’re Alive by Kutless,
 but I couldn’t wait for this tab so I just decided to do it myself.
Have fun!
Show more