Disco Ensemble - Golden years

Tabbed by gab|503

Tuning: Drop D (DADG)

Verse:

G|------------------------------------------------|
D|------------------------------------------------|
A|------------------------------------------------|
D|--0-0----0----0--0----0----0--0-0-0--0--0-0-0---| x2

G|-----------------------------------------------------------------------------------|
D|-----------------------------------------------------------------------------------|
A|--10-10-10-10-10-10-10-10-10-10-10-10-10-10-10-10-7-7-7-7-7-7-7-7-7-7-7-7-7-7-7-7--|
D|-----------------------------------------------------------------------------------|

G|------------------------------------------------|
D|------------------------------------------------|
A|------------------------------------------------|
D|--0-0----0----0--0----0----0--0-0-0--0--0-0-0---|

Chorus:

G|-------------------------------------------------------------------|
D|--9-9-9-9-9-9-9-9-9-9-9-9-9-9-9-9-7-7-7-7-7-7-7-7-7-7-7-7-7-7-7-7--|
A|-------------------------------------------------------------------|
D|-------------------------------------------------------------------|

G|-----------------------------------------------------------------------------------|
D|-----------------------------------------------------------------------------------|
A|--10-10-10-10-10----10--10-10-10-10----10--10-10-10-10-10-10-10-10-10-10-10-10-10--|
D|-----------------------------------------------------------------------------------|

G|-------------------------------------------------------------------|
D|--9-9-9-9-9-9-9-9-9-9-9-9-7-7-7-7----------------------------------|
A|----------------------------------5-5-5-5-5-5-5-5-5-5-5-5-5-5-5-5--|
D|-------------------------------------------------------------------|

G|-----------------------------------------------------------------------------------|
D|-----------------------------------------------------------------------------------|
A|--10-10-10-10-10----10--10-10-10-10----10--10-10-10-10-10-10-10-10-10-10-10-10-10--|
D|-----------------------------------------------------------------------------------|

Verse

Chorus

Solo:

G|---------------------------------------------------------------------------|
D|---------------------------------------------------------------------------|
A|---------------------5-5-5-5-5-5-5--10-10-10-10-10-10-10-10-7-7-7-7-7-7-7--|
D|---9-9-9-9-9-9-9-7-7-------------------------------------------------------|

Bridge:

2.13
G|-----------------------------------------------------------------------------------|
D|-----------------------------------------------------------------------------------|
A|--------------------5-5-5-5-5-5-5-10-10-10-10-10-10-10-10-10-10-10-10-10-10-10-10--|
D|--9-9-9-9-9-9-9-7-7----------------------------------------------------------------|

G|--------------------------------------------------------------------------------------|
D|--------------------------------------------------------------------------------------|
A|--7-7-7-7-7-7-7-5-5-9-9-9-9-9-9-9-10-10-10-10-10-10-10-10-10-10-10-10-10-10-10-10-----|
D|----------------------------------------------------------------------------------9\--|

G|-------------------------------------------------------------------|
D|-------------------------------------------------------------------|
A|--7-7-7-7-7-7-7-7-7-7-7-7-7-7-7-7-5-5-5-5-5-5-5-5-5-5-5-5-5-5-5-5--|
D|-------------------------------------------------------------------|

G|---------------------------------------------------|
D|---------------------------------------------------|
A|--10-10-10-10-10-10-10-10-10-10-10-10-10-10-10-10--|
D|---------------------------------------------------|

Chorus

Outro:

G|---------------------------------------------------------------------------|
D|---------------------------------------------------------------------------|
A|---------------------5-5-5-5-5-5-5--10-10-10-10-10-10-10-10-7-7-7-7-7-7-7--|
D|---9-9-9-9-9-9-9-7-7-------------------------------------------------------| x4

G|-------------|
D|-------------|
A|-------------|
D|--9~---------|
Show more