• Song:

    1986

  • Artist:

    Discover America

  • Album:

    Psychology

Intro
G--------79-------------------------------|
D-9999979--777777975----------------9-9---|  (2X)
A------------------77777975---------------|
E---------------------------77777755------|


Verse 1
G----------------------------------------------|
D-9999999999999(11)7777777---------------------| (2X)
A-------------------------5777777975-----------|
E-----------------------------------77777755---|

G--------79-------------------------------|
D-9999979--777777975----------------9-9---|  (2X)
A------------------77777975---------------|
E---------------------------77777755------|


Chorus
G--------------789-9-789-9999-------|
D-9-9-789-9-9-7-----9---------789---|  (2X)
A----9-------9---------------9------|
E-----------------------------------|


Verse 2
G----------------------------------------|
D-9999999(11)7777777---------------------| (2X)
A-------------------5777777975-----------|
E-----------------------------77777755---|

G--------79-------------------------------|
D-9999979--777777975----------------9-9---|  (2X)
A------------------77777975---------------|
E---------------------------77777755------|


Chorus
G--------------789-9-789-9999-------|
D-9-9-789-9-9-7-----9---------789---|  (2X)
A----9-------9---------------9------|
E-----------------------------------|


Bridge
G--------79-------------------------------|
D-9999979--777777975----------------------|  (2X)
A------------------77777975---------------|
E---------------------------77777755------|


Ending
G-----------------------------------------------|
D--------7-------7------------------------------|
A-7777777-9999999-(10)(10)(10)(10)(10)(10)(10)--|
E-----------------------------------------------|

G-------------------------------------------------------------------------|
D--7777777-----------------------------------------------7777777788888888-|
A-0-------7777777799999999(10)(10)(10)(10)(10)(10)(10)(10)----------------|
E-------------------------------------------------------------------------|

G--------79-------------------------------|
D-9999979--777777975----------------------|  (4X)
A-------------------77777975--------------|
E---------------------------77777755------|
Show more