• Song:

    Granite

  • Artist:

    Dispatch

  • Album:

    Who Are We Living For

Standard Tuning

Verse 1
1|-----7--5--------5-----------------------------5--|
2|-----------5--7-----5--7--5------------7--5-------|  x4
3|--5---------------------------8--5--8-------------|
4|--------------------------------------------------|

Verse 2
1|-------------------|
2|-------------------|  x4
3|--5--5--5--5-/-17--|
4|-------------------|

1|-----7--5--------5-----------------------------5--|
2|-----------5--7-----5--7--5------------7--5-------|  x4
3|--5---------------------------8--5--8-------------|
4|--------------------------------------------------|

1|-------------------|
2|-------------------|  x4
3|--5--5--5--5-/-17--|
4|-------------------|

1|-----------------------|
2|-----------------------|
3|--5--5--5--5-/-12-/-8--|
4|-----------------------|

Verse 3
1|-----7--7-----7--7----|
2|*--5--------5--------*|
3|*--------------------*|
4|----------------------|

Outro
1|--7--7--7--7--7--|
2|-----------------| (repeat until
3|-----------------|   fade out)
4|-----------------|

Thanks, please rate it after you learn it.
Show more