• Song:

    Remember

  • Artist:

    Disturbed

  • Album:

    Remember

sponsored links
Artist - Disturbed.
Song - Remember.
Album - Believe(2003).

Tabbed By - Joe@Disturbed16
Tuning - Db Ab Db Gb Bb Eb
KEY: Palm Mute - X
     Bend Half-Step - '
     Bend Full-Step - "
     Hammer On - h
     Slide - /
     Pull Off - p
     Tied Note - ()

AMAZING GUITAR!!!
Don't be discouraged to learn this is just takes time!

INTRO:

Eb|----------------------------------------------------------|
Bb|----------------------------------------------------------|
Gb|----------------------------------------------------------|
Db|-0--2-3-8--2-0-2-3-7--2-3-2-3-0--2-3-8--2-0-2-3-7--0-2--3-|
Ab|-0--2-3-8--2-0-2-3-7--2-3-2-3-0--2-3-8--2-0-2-3-7--0-2--3-|
Db|-0--2-3-8--2-0-2-3-7--2-3-2-3-0--2-3-8--2-0-2-3-7--0-2--3-|     
   ----X-X----X-X-X-X----X-X-X-X----X-X----X-X-X-X-----------      
                                                                   
Eb|------------------------------------------------------------|   
Bb|------------------------------------------------------------|   
Gb|------------------------------------------------------------|  
Db|-0--2-3-8--2-0-2-3-7--2-3-2-3-0--2-3-8--2-0-2-3-7-0-2-3-0-7-|
Ab|-0--2-3-8--2-0-2-3-7--2-3-2-3-0--2-3-8--2-0-2-3-7-0-2-3-0-7-|
Db|-0--2-3-8--2-0-2-3-7--2-3-2-3-0--2-3-8--2-0-2-3-7-0-2-3-0-7-|
   ----X-X----X-X-X-X----X-X-X-X----X-X----X-X-X-X-------------

Repeat entire intro riff twice.


VERSE:

Eb|---------------------------------------------------------------|
Bb|---------------------------------------------------------------|
Gb|---------------------------------------------------------------|
Db|---------------------------------------------------------------|
Ab|----------13----------12------------------------13----------12-|
Db|-0--12-15-----0-12-15-----0-12-15-0-15-0--12-15-----0-12-15----|

Eb|---------------------------------------------------------------------|
Bb|---------------------------------------------------------------------|
Gb|---------------------------------------------------------------------|
Db|------------------------------------------------------------10-10-10-|
Ab|----------13----------12------------------------13----------10-10-10-|
Db|-0--12-15-----0-12-15-----0-12-15-0-15-0--12-15-----0-12-15-10-10-10-|

Repeat entire verse riff twice.

CHORUS:

Eb|---------------------------------------------------------|
Bb|---------------------------------------------------------|
Gb|---------------------------------------------------------|
Db|---10-7---------------10-7---------------10-7------------|
Ab|-8------10-8-7-5-3--8------10-8-7-5-3--8------10-8-7-5-3-|
Db|---------------------------------------------------------|

Eb|----------------------------------------|
Bb|----------------------------------------|
Gb|----------------------------------------|
Db|---10-7-----------------5-5-3-3---------|
Ab|-8------10-8-7-5-3--3-5---------5-5-3h5-|
Db|----------------------------------------|

Eb|-----------------------------------------|
Bb|-----------------------------------------|
Gb|-----------------------------------------|
Db|---10-7----------------------------10-10-|
Ab|-8------10-8-7-5/7-8-8-10-10-12-12-------|
Db|-----------------------------------------|

Eb|----------------------------------------------------------------|
Bb|----------------------------------------------------------------|
Gb|-10-10-10-----10-10-10-----10-10--------10-10-10----10-10-10----|
Db|----------10-----------10--------10/12-----------12----------12-|
Ab|----------------------------------------------------------------|
Db|----------------------------------------------------------------|

Eb|------------------------------------------------------|
Bb|------------------------------------------------------|
Gb|-10-10--------12-14-12'---------------12-14-12'-12-10-|
Db|-------10/12------------12--10--12p10-----------------|
Ab|------------------------------------------------------|
Db|------------------------------------------------------|

FIRST CHORUS ENDING:

Eb|---------------------------------|
Bb|---------------------------------|
Gb|-14"-(14)------------------------|
Db|-----------12"-(12)--------------| 
Ab|--------------------12"-(12)-----|
Db|------------------------------12-|

VERSE 2:

Eb|---------------------------------------------------------------|
Bb|---------------------------------------------------------------|
Gb|---------------------------------------------------------------|
Db|---------------------------------------------------------------|
Ab|----------13----------12------------------------13----------12-|
Db|-0--12-15-----0-12-15-----0-12-15-0-15-0--12-15-----0-12-15----|
   ----X--X------X-X--X------X-X--X--X-X-----X--X------X-X--X-----

Eb|---------------------------------------------------------------------|
Bb|---------------------------------------------------------------------|
Gb|---------------------------------------------------------------------|
Db|------------------------------------------------------------10-10-10-|
Ab|----------13----------12------------------------13----------10-10-10-|
Db|-0--12-15-----0-12-15-----0-12-15-0-15-0--12-15-----0-12-15-10-10-10-|
   ----X--X------X-X--X------X-X--X--X-X-----X--X------X-X--X-----------
Repeat entire verse 2 riff twice.

REPEAT CHORUS

SECOND CHORUS ENDING:

Eb|---------------|     
Bb|---------------|
Gb|-14"-----------|
Db|------12"------|
Ab|---------------|
Db|---------------|

BRIDGE:

Eb|------------------------------------------------|
Bb|------------------------------------------------|
Gb|------------------------------------------------|
Db|-8---X-X-8/12--12--12-12--8--3-3-3-0--0--0--3-0-|
Ab|-8---X-X-8/12--12--12-12--8--3-3-3-0--0--0--3-0-|
Db|-8---X-X-8/12--12--12-12--8--3-3-3-0--0--0--3-0-|

Eb|---------------------------------------------|
Bb|---------------------------------------------|
Gb|---------------------------------------------|
Db|-8---X-X-8/12--12--12-12--8--3--0--0--0--0-0-|
Ab|-8---X-X-8/12--12--12-12--8--3--0--0--0--0-0-|
Db|-8---X-X-8/12--12--12-12--8--3--0--0--0--0-0-|

Eb|------------------------------------------------|
Bb|------------------------------------------------|
Gb|------------------------------------------------|
Db|-8---X-X-8/12--12--12-12--8--3-3-3-0--0--0--3-0-|
Ab|-8---X-X-8/12--12--12-12--8--3-3-3-0--0--0--3-0-|
Db|-8---X-X-8/12--12--12-12--8--3-3-3-0--0--0--3-0-|

Eb|----------------------------------|
Bb|----------------------------------|
Gb|----------------------------------|
Db|-5--5--5--5--5-5--2--2--2--2--2-2-|
Ab|-5--5--5--5--5-5--2--2--2--2--2-2-|
Db|-5--5--5--5--5-5--2--2--2--2--2-2-|

INTERLUDE:

Eb|-----------------------------------------------------------------|
Bb|-----------------------------------------------------------------|
Gb|-----------------------------------------------------------------|
Db|-----------------------------------------------------------------|
Ab|-0-0-2-3-8-8-2-0-2-3-7-7-2-3-2-3-0-0-2-3-8-8-2-0-2-3-7-7-2-3-2-3-|
Db|-0-0-2-3-8-8-2-0-2-3-7-7-2-3-2-3-0-0-2-3-8-8-2-0-2-3-7-7-2-3-2-3-|
   -X-X-X-X-----X-X-X-X-----X-X-X-X-X-X-X-X-----X-X-X-X-----X-X-X-X-

REPEAT CHORUS

THIRD CHORUS ENDING:

Eb|-----------------|     
Bb|-----------------|
Gb|-14"-14----------|
Db|-----------------|
Ab|-----------------|
Db|-----------------|

Eb|-----------------|     
Bb|---------12------|
Gb|-14"-14----------|
Db|-----------------|
Ab|-----------------|
Db|-----------------|

OUTRO:

Eb|----------------------------------------------------------|
Bb|----------------------------------------------------------|
Gb|----------------------------------------------------------|
Db|-0--2-3-8--2-0-2-3-7--2-3-2-3-0--2-3-8--2-0-2-3-7--0-2--3-|
Ab|-0--2-3-8--2-0-2-3-7--2-3-2-3-0--2-3-8--2-0-2-3-7--0-2--3-|
Db|-0--2-3-8--2-0-2-3-7--2-3-2-3-0--2-3-8--2-0-2-3-7--0-2--3-|     
   ----X-X----X-X-X-X----X-X-X-X----X-X----X-X-X-X----------- 

Eb|------------------------------------------------------------|   
Bb|------------------------------------------------------------|   
Gb|------------------------------------------------------------|  
Db|-0--2-3-8--2-0-2-3-7--2-3-2-3-0--2-3-8--2-0-2-3-7-0-2-3-0-7-|
Ab|-0--2-3-8--2-0-2-3-7--2-3-2-3-0--2-3-8--2-0-2-3-7-0-2-3-0-7-|
Db|-0--2-3-8--2-0-2-3-7--2-3-2-3-0--2-3-8--2-0-2-3-7-0-2-3-0-7-|
   ----X-X----X-X-X-X----X-X-X-X----X-X----X-X-X-X-------------

Eb|----------------------------------------------------------|
Bb|----------------------------------------------------------|
Gb|----------------------------------------------------------|
Db|-0--2-3-8--2-0-2-3-7--2-3-2-3-0--2-3-8--2-0-2-3-7--0-2--3-|
Ab|-0--2-3-8--2-0-2-3-7--2-3-2-3-0--2-3-8--2-0-2-3-7--0-2--3-|
Db|-0--2-3-8--2-0-2-3-7--2-3-2-3-0--2-3-8--2-0-2-3-7--0-2--3-|     
   ----X-X----X-X-X-X----X-X-X-X----X-X----X-X-X-X----------- 

Eb|--------------------------------------------------------|
Bb|--------------------------------------------------------|
Gb|--------------------------------------------------------|
Db|-0--2-3-8--2-0-2-3-7--2-3-2-3-0--2-3-8--2-0-2-3-7--0-2--|
Ab|-0--2-3-8--2-0-2-3-7--2-3-2-3-0--2-3-8--2-0-2-3-7--0-2--|
Db|-0--2-3-8--2-0-2-3-7--2-3-2-3-0--2-3-8--2-0-2-3-7--0-2--|     
   ----X-X----X-X-X-X----X-X-X-X----X-X----X-X-X-X---------

LYRICS:

INTRO:

Sensation washes over me
I can't describe it
Pain I felt so long ago
I don't remember

VERSE 1:

Tear a hole so I can see
My devastation
Feelings from so long ago
I don't remember

CHORUS:

Holding on, to let them know
What's given to me
To hide behind
The mask this time
And try to believe

VERSE 2:

Blind your eyes to what you see
You can't embrace it
Leave it well enough alone
And don't remember
Cut your pride and watch it bleed
You can't deny it
Pain you know you can't ignor
I don't remember

OUTRO:

If I can
Remember
To know this will
Conquer me
If I can
Just walk alone
And try to escape
Into me

BAND MEMBERS:
David Draiman - Vocals.
Dan Donegan - Guitar.
Fuzz - Bass.
Mike Wengren - Drums.
Show more
sponsored links
sponsored links