/ uvod / - Em

Em         G          D     DCH    Em
Aaaaa------Aaaaa------Vahaaa

Em                D         Em
U daljini cuju se kao gromovi
Em                D          Em
Autoputem prolaze kao vjetrovi
G    D     Em        G     D    Em
Odlaze na dalek put, ko to moze znati
G    D    Em           G      D      Em
Samo neki stoper ljut, sto ih prstom prati.

REFREN:
Fism            A E Fism
Motori, motori, motori          /3X
Fism            A E D
Motori, motori, motori          /1X

Em - D - GDG  /2X

Em                  D            Em
Izlizane traperice, jakne, cizmice
Em              D           Em
Usijane kacige, kozne torbice
G    D    Em         G     D    Em
Odlaze na dalek put, ko to moze znati
G    D    Em           G      D      Em
Samo neki stoper ljut, sto ih prstom prati.

REFREN:
SOLO: Em - D  /4X

G    D    Em         G     D    Em
Odlaze na dalek put, ko to moze znati
G    D    Em           G      D      Em
Samo neki stoper ljut, sto ih prstom prati.

REFREN: /2X

/ uvod /

SOLO:
------------------------------------------------------------------------------|
------------------------------------------------------------------------------|
------------------------------------------------------------12r9-----9--------|
--9x9x9x9x9x9x9x9x8x8x8x8x88x7x7x7x7x7x-7vvv---------------------7h9----7h9---|
------------------------------------------------------7\----------------------|
----------------------------------------------3--0----------------------------|

------------------------------------------------------------------------------|
---------------8-------15r12v-12-15-------------------------------------------|
-------------7---9\-----------------12-14-----------------9\------------------|
-5-7vvvvv-/9-------------------------------0b\------------9\------------------|
------------------------------------------------------------------------------|
------------------------------------------------------------------------------|
                                         (trem. bend down)

-----------------12t15p12t15p12-----------------12t15p12t15p12----------------|
-t15p12t15p12t15----------------t15p12t15p12t15-------------------------------|
------------------------------------------------------------------------------|
------------------------------------------------------------------------------|
------------------------------------------------------------------------------|
------------------------------------------------------------------------------|

-----------------t15p12t15p12t15p12-------------------------------------------|
-t15p12t15p12t15--------------------15\---------------------------------------|
------------------------------------------------------------------------------|
------------------------------------------------------------------------------|
------------------------------------------------------------------------------|
------------------------------------------------------------------------------|

(by Adi)
E-----------------------------|---------8--7------------|
B-----------------------------|-----10--------10~-------|
G------------7------9--7--10--|--9----------------------|
D--7--10--9-----10------------|-------------------------|
A-----------------------------|-------------------------|
E-----------------------------|-------------------------|
Show more