Ovo je ispravak taba koji je vec stavljen tu na ultimate guitar kako ja mislim da ovo ide
puno zabave svirajuci vam zelim
Riff 1
E--------------------------------------------------------|
H--------------------------------------------------------|
G--------------------------------------------------------|
D--2--2-2-2--2-2-2-2-2-2-2--2-2-2--2-2-2--2-2-2-2-2-2-2--|
A--0--0-0-0--0-0-0-0-0-0-0--0-0-0--0-0-0--0-0-0-0-0-0-0--|
E--------------------------------------------------------|

Riff 2
E-------------------------------------------------------------------|
H-------------------------------------------------------------------|
G---------5/7-------------4/5-------------5/7-------------4/5-------|
D--2--2-2-5/7------2--2-2-4/5------2--2-2-5/7------2--2-2-4/5-------|
A--0--0-0----------0--0-0----------0--0-0----------0--0-0-----------|
E-------------------------------------------------------------------|

Riff 3
E----------------------------------|
H----------------------------------|
G------7777----5555----3333-2-1-2--|
D--7777----5555----3333------------|
A----------------------------------|
E----------------------------------|

Riff 4
E------------------------------------------------|
H------------------------------------------------|
G------7777----5555-----3—-1/5—-3/7--------------|
D--7777----5555----3333-3---------------------2--|
A-------------------------------------7-\-\---0--|
E-------------------------------------5-\-\------|



glavna tema


  Am
e|-----------------------------------------------------------|
H|----------------------------------12-10-9-10-12-10-9-10-13-|
G|-------------7-5-4-5-9--10-9-8-9---------------------------|
D|-9-7-6-7-10------------------------------------------------|
A|-----------------------------------------------------------|
E|-----------------------------------------------------------|

          Em                      Em    H7    Em
e|-----------------------------------------------|
H|--10-13-12-10----10-12-10----10-12-10----------|
G|--------------12----------12----------12-11-9--|
D|-----------------------------------------------|
A|-----------------------------------------------|
E|-----------------------------------------------|



      C          G       C           G
e|----------5-------------------5---------|
H|--5-6-8-8---8-6-5-----5-6-8-8---8-6-5---|
G|------------------7-------------------7-|
D|----------------------------------------|
A|----------------------------------------|
E|----------------------------------------|

  Am        E        Am          E
e|---------------------------------------|
H|---3-5-5-6-5-3--------3-5-5-6-5-3------|
G|-5-------------5-4--5-------------5-4--|
D|---------------------------------------|
A|---------------------------------------|
E|---------------------------------------|



             Am                                           Adim
e|------------------------------------------------------------|
H|-----------------------------------12-10-9-10-12-10-9-10-13-|
G|--------------7-5-4-5-9--10-9-8-9---------------------------|
D|--9-7-6-7-10------------------------------------------------|
A|------------------------------------------------------------|
E|------------------------------------------------------------|

         Am     E    Am     Dm   Am E      Am
e|--------------------------------------------|
H|-10-12-13-12-10----10-----------------------|
G|----------------13----9-9-10-9--------------|
D|-------------------------------10-9_10_9-7--|
A|--------------------------------------------|
E|--------------------------------------------|



           A                D            E
e|-------7-9----7-9/10\9_7------------7---------|
H|----10-----10-----------10-9-7-9-10---9/10----|
G|--9----------------------------------------9--|
D|----------------------------------------------|
A|----------------------------------------------|
E|----------------------------------------------|

         A                   D   E    A
e|-----7-9----7-9/10\9_7-------7---------|
H|--10-----10-----------10-9-7---9---10--|
G|---------------------------------9-----|
D|---------------------------------------|
A|---------------------------------------|
E|---------------------------------------|




              F#m                 C#
e|--9-10-9-----------------------------------------|
H|---------12-10-12-10-9-7-10-9-7-6-7-9-7----------|
G|----------------------------------------6-8-10-8-|
D|-------------------------------------------------|
A|-------------------------------------------------|
E|-------------------------------------------------|

  F#m               C#             F#m                C#m
e|----------------7-9-8-9-8--9-10-9------------------------|
H|7-6-7-9-10-9-10-------------------12-10-12-10-9-7-10-9-7-|
G|---------------------------------------------------------|
D|---------------------------------------------------------|
A|---------------------------------------------------------|
E|---------------------------------------------------------|

               G#m7             C#m
e|--------------------------------------|
H|----7-9-------------------------------|
G|--9-----9-6-8-9-6-8-9-11-8-5-6-8-5-6--|
D|--------------------------------------|
A|--------------------------------------|
E|--------------------------------------|



            A               E
e|----------------------4-5-5-4-------------|
H|--5---------------5-7---------7-5-5-------|
G|----7-6-4---4-6-7-------------------7-6-4-|
D|----------7-------------------------------|
A|------------------------------------------|
E|------------------------------------------|

  A               E          A               E
e|-------------4-5-6-7----------------------4-5-|
H|---------5-7----------5---------------5-7-----|
G|---4-6-7----------------7-6-4---4-6-7---------|
D|-7----------------------------7---------------|
A|----------------------------------------------|
E|----------------------------------------------|

                 A        E       A
e|-5-4----------------------------------|
H|-----7-5-5----------------------------|
G|-----------7-6-4--6-9---6--4-7---4----|
D|----------------------7--------6---7--|
A|--------------------------------------|
E|--------------------------------------|




               F#m                C#
e|--9-10-9-----------------------------------------|
H|---------12-10-12-10-9-7-10-9-7-6-7-9-7----------|
G|----------------------------------------6-8-10-8-|
D|-------------------------------------------------|
A|-------------------------------------------------|
E|-------------------------------------------------|

   F#m               C#                Hm
e|-----------------7-9-8-9-8-9-8-9-6---10-9-10-9-10-9-10-9-|
H|-7-6-7-9-10-9-10-----------------------------------------|
G|---------------------------------------------------------|
D|---------------------------------------------------------|
A|---------------------------------------------------------|
E|---------------------------------------------------------|

   F#m                  C#                F#m
e|-10-9----------------------------------------|
H|------12-10-7-9-10-9--9-10-12-9--6-7-9-6-7---|
G|---------------------------------------------|
D|---------------------------------------------|
A|---------------------------------------------|
E|---------------------------------------------|



    A                                    D
e|-9-9-9--9-9-9--7-9-10-9-7-9-10-9-7-9-10-9-9-9-9----9-7_9_7-|
H|------------------------------------------------10---------|
G|-----------------------------------------------------------|
D|-----------------------------------------------------------|
A|-----------------------------------------------------------|
E|-----------------------------------------------------------|

    A          E         A
e|-12-9--12-9---7-9-10-9-7-9-10-9-7-9-10--9-9----9-7_9_7-|
H|--------------------------------------------10---------|
G|-------------------------------------------------------|
D|-------------------------------------------------------|
A|-------------------------------------------------------|
E|-------------------------------------------------------|

    D   A        E         A
e|--12-----9-----12---12---12--7->9~~---12--------|
H|-----10----10-----9----9-----------10----10~~~--|
G|------------------------------------------------|
D|------------------------------------------------|
A|------------------------------------------------|
E|------------------------------------------------|
Show more