-------------------------------------------------------------------------------
			     1978 - Do Make Say Think
-------------------------------------------------------------------------------

Tabbed By : Jaronator
e-mail: jaronatorpwns@gmail.com

Tuning: Standard

First bass track:
---
Verse A:
G|14--14----|----11------|
D|14--14----|11--------11|
A|----------|-------9----|
E|----------|------------|

Verse B:
G|--11--11--|--11--11--|--11--11--|--11--11--|
D|--12--12--|--11--11--|--9---9---|--9---9---|
A|----------|----------|----------|----------|
E|----------|----------|----------|----------|

Co-ordinate with the second track for the proper timing. 
I'm not so sure if they're actually couplets, or if it's 
just the F# alone, but it gives this track a little fun 
regardless. These couplets should be about a quarter note 
after the first note of the second track, like so:

First track:  |---11-----11---|
     "        |---12-----12---|
Second track: |5------5------5|
              |---------------|

Verse Ca:                  Verse Cb:               Verse Cc:
G|11--11----------------|  G|-------------------|  G|-----------------|
D|--------11---(11)-----|  D|----4--------------|  D|4--4-------------|
A|------------------9\--|  A|-------4---(4)-----|  A|------4---(4)----|
E|----------------------|  E|---------------2\--|  E|--------------2--|

-------
1:02 - A
3:10 - B
3:26 - A
5:38 - B
5:52 - A
6:20 - Ca
6:36 - Cb
7:51 - Cc
8:16 - A
Fade at around 10:05

---
Second bass track:
---
Verse A:
G|14--14-14--14-14--14|13--13-13--13-13--13|
D|--------------------|--------------------|
A|--------------------|--------------------|
E|--------------------|--------------------|

G|11--11-11--11-11--11||9--9-9--------------||
D|--------------------||--------11----11----||
A|--------------------||--------------------|| x75
E|--------------------||--------------------||

That's right, repeat that final bar 75 times. I'm not counting it 
again for every time it's played, but every time verse A is played, 
just do the first three bars, then play the final one until verse B 
starts.

Verse B:
G|----------|----------|----------|----------|
D|----------|----------|----------|----------|
A|5---5---5-|4---4---4-|3---3---3-|3---3---3-|
E|----------|----------|----------|----------|


1:13 - A
3:10 - B
3:36 - A
5:38 - B
8:55 - A  Feel free to play with some wah for this one. Fade from 9:45-10:05.

| /  slide up
| \  slide down
| h  hammer-on
| p  pull-off
| ~  vibrato
| +  harmonic
| x  Mute note
| () Ghost note
===============================================================================
Show more