-------------------------------------------------------------------------------
			     A Week in the Dark - Do Make Say Think
-------------------------------------------------------------------------------

Tabbed By : Jaronator
e-mail: jaronatorpwns@gmail.com

Tuning: Standard

This song's difficult to tab in any 
order that isn't sequential, so that's
how I'll do it. 

Verse Aa:
G|--------|--5x-5---|
D|--------|--5x-5---|
A|-3------|---------|
E|---3-3--|---------|

Make sure to palm mute the second-last couplet.

Verse Ba:
G|--------10--12-||---------|----------|| 
D|-10/-12--------||--10-----|----------||
A|---------------||--10-----|----------|| double bar section x 4
E|---------------||---------|--8-------||

Verse Ca:
G|--------|--------|--------|--10--12-----|--10--12-----|
D|-10-----|-12-----|--------|-------------|-------------|
A|--------|--------|--------|-------------|-------------|
E|--------|--------|--------|-------------|-------------|

Verse Cb:
G|--10--12-----|
D|-------------|  x4
A|--8---10-----|
E|-------------|

Verse Cc:
G|--15--17-----|--12--12-----|
D|-------------|-------------|  
A|--13--15-----|--10--10-----|
E|-------------|-------------|

Verse Aa:
G|--------|--5x-5---|
D|--------|--5x-5---|
A|-3------|---------| until:
E|---3-3--|---------|

Verse Bb:
G|--------10-12----|--10-12-------|-----10-12----|-----10-12----|
D|-10/-12-------12-|--------12----|--12-------12-|--12-------12-|
A|-----------------|--------------|--------------|--------------|
E|-----------------|--------------|--------------|--------------|

Verse Ab:
G|-5x-----7x--7-|---5x-5---7---|---5x-5---7---|
D|-5x-5---5x--5-|---5x-5---5---|---5x-5---5---|
A|----5-------5-|-3--------5---|-3--------5---|
E|--------------|--------------|--------------|

G|-5x-5---5x--5-|    G|-5x-5---5-----|
D|-5x-5---5x--5-| x6 D|-5x-5---5-----|
A|--------------|    A|--------------|
E|--------------|    E|--------------|

Verse Bc:
G|-----10--12-|---------10-|-10--10-10/14-|-12--12---|
D|-12---------|-12--12--12-|--------------|----------|
A|------------|------------|--------------|----------|
E|------------|------------|--------------|----------|

G|-16b--14b--13b--11b--14b-14b-|-11b--13b--9b--11b--9b-|
D|-----------------------------|-----------------------|
A|-----------------------------|-----------------------|
E|-----------------------------|-----------------------|

G|-16b--14b--13b--11b--9b--11b-|-14b--13b--11b--9b--11b-|
D|-----------------------------|------------------------|
A|-----------------------------|------------------------|
E|-----------------------------|------------------------|

G|-9b--11b--9b--11b-|
D|------------------|
A|------------------| x4
E|------------------|

Those notes are about a quarter-step higher than what 
I've written, so bend 'em just a bit to reach the 
proper notes. 

Verse Cb:
G|--10--12-----|
D|-------------|  x4
A|--8---10-----|
E|-------------|

Verse Cd:
G|-------------|
D|-------------|  
A|-8--8-8-8--8-|
E|-------------|

Verse Aa and variations:
G|--------|--5x-5---|
D|--------|--5x-5---|
A|-3------|---------|
E|---3-3--|---------|

G|--------|---------|
D|--------|---------|
A|-3------|-/10-----| x2
E|--------|---------|

G|--------|--------|
D|--------|---5----|
A|-3------|-3------| until
E|---3-3--|-----5--|


G|--------|---------|
D|--------|---------|
A|-3------|-/10-----| x6
E|--------|---------|

G|--------|
D|---5----|
A|-3------|
E|-----5--|


---
2:32 - Aa
2:56 - B
3:30 - Ca
3:49 - Cb
4:06 - Cc
4:14 - Aa
5:09 - Bb
5:24 - Ab
5:54 - Aa
6:03 - Bc
6:38 - Cb
6:54 - Cd
7:08 - Aa



| /  slide up
| \  slide down
| h  hammer-on
| p  pull-off
| ~  vibrato
| +  harmonic
| x  Mute note
| b  Bend note
===============================================================================
Show more