-------------------------------------------------------------------------------
			     All Of This Is True - Do Make Say Think
-------------------------------------------------------------------------------

Tabbed By : Jaronator
e-mail: jaronatorpwns@gmail.com

Tuning: Standard

This can just as easily be done using drop D
tuning.

Verse A: 
G|---------|       G|---------|---------|---------|---------|
D|---------|       D|---------|---------|---------|---------|
A|---------|       A|---------|---------|---------|---------|
E|---------| x 12  E|-3-------|---------|---------|---------| x 3
B|-5----3x-|       B|---------|-3-------|-5-------|-5-------|

Verse B:
G|------------|------------|------------|------------|
D|------------|------------|------------|------------|
A|------------|-5----------|------------|------------|
E|------------|------------|-3---5---7--|------------|
B|-5-------5--|------------|------------|-3--5-----3-|

G|------------|------------|------------|------------|
D|------------|------------|------------|------------|
A|------------|-5----------|------------|------------|
E|------------|------------|-3---5---7--|------------| x6 to fade
B|-5-------3--|------------|------------|-3--5-----3-|

Merry Christmas everybody!

(Transition to Bruce E Kinesis:

G|---------------------------|
D|---2----2----2----2------2-|
A|---------------------------|
E|-0----0----0----0----0-----|)


---
3:25 - A
4:42 - B
7:20 - Brucie transition


| /  slide up
| \  slide down
| h  hammer-on
| p  pull-off
| ~  vibrato
| +  harmonic
| x  Mute note
===============================================================================
Show more