Do Make normally plays with their guitars a half step down but this song sounds fine in 
tuneing.

intro (played very slow and soft untill the last time)
e--0----0-0----x-0-|
B--1----0-0----0-0-|
G--2----0-2----0-0-|
D--2----0-3----0-2-|
A--0----x-3----0-3-|
E--x----x-x----x-3-|

This is played about 12 times or so and in the middle of every time he slides the notes 
very softly and the strums the last chord. For exaple,

e--0----0-0----x-0---------------0~
B--1----0-0----0-0---------------0~
G--2----0-2----0-0---------------0~
D--2----0-3----0-2------2/4------2~
A--0----x-3----0-3------3/5------3~
E--x----x-x----x-3---------------3~

The last chord is only strummed every so often and it is extremmly soft.

The verse portion goes like this

e--------------------------------------------|
B--------------------------------------------|
G----------0------------0-----------0--------|
D-----0h2---------0h2----------0h2---------0-|
A-3-----------3------------3-----------------|
E--------------------------------------3h4---|

The lead solo part starts out like this (on the quater notes)

e-----------------------------------------|
B-8-----------5------------1-----------10-|
G-----------------------------------------|
D-----------------------------------------|
A-----------------------------------------|
E ----------------------------------------|

this drops out and then you play these notes at random times not in order.

after that goes one for about two messures or so it turns in to this

e--8-8-8-8-8-8--5-5-5-5-5-5--1-1-1-1-1-1--10-10-10-10-10-10-|
B-8-8-8-8-8-8--5-5-5-5-5-5--1-1-1-1-1-1--10-10-10-10-10-10--|
G-----------------------------------------------------------|
D-----------------------------------------------------------|
A-----------------------------------------------------------|
E-----------------------------------------------------------|

Thats as far as i know it later speeds up and it is just the solo guitar playing fast 
and the drums but no secound guitar. then the secound guitar comes later with heavy 
so i don't know what thoes notes are.

i think the fast par maybe this but im not sure

e-----------------------------------------10-10-10-10-10-10-|
B-888888-555555-888888-101010555-111111-10-10-10-10-10-10---|

Its a good song and like most Do Make Say Think songs it is fun to play.
Show more