-------------------------------------------------------------------------------
			     Bobby Zincone - Do Make Say Think
-------------------------------------------------------------------------------

Tabbed By : Jaronator
e-mail: jaronatorpwns@gmail.com

Tuning: Standard

Verse Aa:
G|-9-------|----------------|-------|-------|
D|----9----|----------------|-9-----|-------|
A|------7--|------7--7/-9---|-------|-------|
E|---------|-7--7-----------|-------|-------|

Verse Ab:
G|-9-------|----------------|-------|-------|
D|----9----|----------------|-9-----|-------|
A|------7--|----------------|-------|-------|
E|---------|----------------|-------|-------|

---
2:30 - Aa
4:21 - Ab

| /  slide up
| \  slide down
| h  hammer-on
| p  pull-off
| ~  vibrato
| +  harmonic
| x  Mute note
===============================================================================
Show more