-------------------------------------------------------------------------------
			     Bruce E Kinesis - Do Make Say Think
-------------------------------------------------------------------------------

Tabbed By : Jaronator
e-mail: jaronatorpwns@gmail.com

Tuning: Standard


G|------------------|---------------|
D|------------------|---------------|
A|----7-----7-----7-|-----7-------7-|
E|-0-----0-----0----|--0------0-----|

Pretty much that for the entire song. He'll often pull a:

G|------------------|------------9--|
D|------------------|---------------|
A|----7-----7-----7-|-----7---------|
E|-0-----0-----0----|--0------0-----|

Every now and then, so listen for 'er.

At just before the two-minute mark, he'll play:

G|------------------|---------------|
D|------------------|---------------|
A|------------------|---------------|
E|-0--7--0--7--0--7-|--0--7---0---7-|

And that's it.

---


| /  slide up
| \  slide down
| h  hammer-on
| p  pull-off
| ~  vibrato
| +  harmonic
| x  Mute note
===============================================================================
Show more