-------------------------------------------------------------------------------
			     Disco & Haze - Do Make Say Think
-------------------------------------------------------------------------------

Tabbed By : Jaronator
e-mail: jaronatorpwns@gmail.com

Tuning: Standard

Intro:
G|------|------|------|---9--|
D|------|------|------|------|
A|------|------|------|------|
E|------|------|------|------|

Listen for the variations in 
how often the E note is played.

Verse A:
G|-------------|------|------|------|------|
D|-------------|------|------|------|------|
A|-0-0-0-0-0-5-|------|------|------|-7-7-7| x3
E|-------------|-0----|-0---0|------|------|

Not sure about that last bar, but it works.

G|------|------|------|---------|
D|------|------|------|----14---|
A|------|------|------|/12----12|
E|-0----|-0---0|------|---------|


The rest of the song is largely just improvised, featuring these bars in 
(generally) this order.

G|------|------|------|------|------|---------|------|---------|
D|------|------|------|------|------|---------|------|----14---|
A|------|------|------|-7-7-7|------|---------|------|/12----12|
E|-0----|-0---0|------|------|-0----|/12-12-12|------|---------|

---
3:18 - Intro. 
5:26 - A


| /  slide up
| \  slide down
| h  hammer-on
| p  pull-off
| ~  vibrato
| +  harmonic
| x  Mute note
===============================================================================
Show more