-------------------------------------------------------------------------------
			     Dr. Hooch - Do Make Say Think
-------------------------------------------------------------------------------

Tabbed By : Jaronator
e-mail: jaronatorpwns@gmail.com

Tuning: Drop D

Verse Aa:
G|-----0-|------|------|------|
D|---2---|------|------|------|
A|0------|------|------|------|
D|-------|------|------|------|


Verse Ab:
G|-----0--2|------|------|------|
D|---2-----|------|------|------|
A|0--------|------|------|------|
D|---------|------|------|------|


Verse B:
G|-------------|-------------|-------------|-------------|
D|7--7-7-7-----|5--5-5-5-----|7--7-7-7-----|5--5-5-5-----|
A|---------7-7-|---------5-5-|---------7-7-|---------5-5-|
D|-------------|-------------|-------------|-------------|

Variation a:
G|-------------|-------------|-------------|-------------|
D|7--7-7-7-----|5--5-5-5-----|7--7-7-7-----|5--5-5-------|
A|---------7-7-|---------5-5-|---------7-7-|-------5-5-5-|
D|-------------|-------------|-------------|-------------|

Variation b:
G|-------------|-------------|-------------|--------------|
D|7--7-7-7-----|5--5-5-5-----|7--7-7-7-----|5--5-5--------|
A|---------7-7-|---------5-5-|---------7-7-|-------5-5-5-7|
D|-------------|-------------|-------------|--------------|

It's always the first four bars of Verse B, followed by either 
one of those variations.

Verse C:
G|-------------|-------------|
D|-------------|-------------|
A|0--0-0-0-----|-------------|
D|---------2-2-|5--5-5-5-0-0-|

Again, a few variations every eighth bar.

---
0:00 - Aa
3:20 - Ab
3:27 - B
5:08 - C
5:57 - Aa 


| /  slide up
| \  slide down
| h  hammer-on
| p  pull-off
| ~  vibrato
| +  harmonic
| x  Mute note
===============================================================================
Show more