-------------------------------------------------------------------------------
			     Highway 420 - Do Make Say Think
-------------------------------------------------------------------------------

Tabbed By : Jaronator
e-mail: jaronatorpwns@gmail.com

Tuning: Standard

Verse A:
G|------|------|-----4|------|------|-----4|------|-4----|
D|-4----|-4----|------|-4----|-4----|------|-4----|------|
A|------|----2-|------|------|----2-|------|------|----2-|
E|------|------|------|------|------|------|------|------|

G|-----4|------|------|-----4|------|------|-----4|------|
D|------|-4----|-4----|------|-4----|------|------|-4----|
A|------|------|----2-|------|------|----2-|------|------|
E|------|------|------|------|------|------|------|------|

Verse B:
G|---------|-----------|
D|---9--8--|7--6--5----|
A|7--------|---------2/|
E|---------|-----------|

At around 5:40, listen for when he drops the G from the 
final bar every so often. It's also at this time that you 
start putting a little vibrato in the notes.

Verse C:
G|--------------|---------|---------------|------|
D|-----9-8------|---------|-----9-8-------|------|
A|7-10----------|---------|7-10-----10-7--|------|
E|--------------|---------|---------------|------|

G|------------------|---------|---------------|------|
D|-----9-8---8-8-8-9|---------|-----9-8-------|------|
A|7-10--------------|---------|7-10-----10-7--|------|
E|------------------|---------|---------------|7-----|

Verse D:
G|------|----9-9-9-9---|
D|------|------------9-|
A|-7----|--------------|
E|------|--------------|

Listen for a slight variation near the end of the second 
bar, as he drops a note and changes the rhythm a tad. Also
start bending the E note in the first bar when appropriate.


----
2:45 - A
4:43 - B
6:14 - C
6:47 - D
7:16 - First bar of D, but bend it accordingly.


| /  slide up
| \  slide down
| h  hammer-on
| p  pull-off
| ~  vibrato
| +  harmonic
| x  Mute note
===============================================================================
Show more