-------------------------------------------------------------------------------
			     The Apartment Song - Do Make Say Think
-------------------------------------------------------------------------------

Tabbed By : Jaronator
e-mail: jaronatorpwns@gmail.com

Tuning: Standard

The only time he really needs the B string is for the
D, which you can reach by just dropping your E string.

Verse A:
G|---------|---------|---------|----7----|-7-/-----|
D|---------|---------|---------|------7--|---------|
A|---------|---------|---------|-5------5|---------|
E|-0-------|-7--\----|-0---3---|---------|---------|
B|---------|---------|---------|---------|---------|

G|---------|---------|---------|---------|-----7/--|
D|---------|---------|---------|---------|---------|
A|---------|---------|---------|---------|-5-------|
E|-0-------|-7---5-3-|-0---3---|-7---5---|---------|
B|---------|---------|---------|---------|---------|

G|---------|---------|---------|----7----|-7-/-----|
D|---------|---------|---------|------7--|---------|
A|---------|---------|---------|-5------5|---------|
E|-0-------|-7-------|-0---3---|---------|---------|
B|---------|---------|---------|---------|---------|

G|---------|------------|---------|----7----|-7-----7/|
D|---------|------------|---------|------7--|---7-----|
A|---------|---7--------|---------|-5------5|-----5---|
E|-0-------|-7---7-7h8-3|-0-------|---------|---------|
B|---------|------------|---------|---------|---------|

G|---------|---------|---------|---------|---------|
D|---------|---------|---------|---------|---------|
A|---------|---------|-----5---|-----6--9|-10------|
E|-0-------|---------|-3-------|-7-------|---------|
B|---------|---------|---------|---------|---------|

Break:
G|-------------|
D|-------------|
A|-x3-3-3-2-2-2|
E|-------------|
B|-------------|

Verse A:

G|---------|---------|---------|----7----|-7-----7/|
D|---------|---------|---------|------7--|---7-----|
A|---------|---------|---------|-5------5|-----5---|
E|-0-------|-7-------|-0---3---|---------|---------|
B|---------|---------|---------|---------|---------|

G|---------|----------|---------|----7----|-7-/-----|
D|---------|----------|---------|------7--|---------|
A|---------|---------7|---------|-5------5|---------|
E|-0-------|-7--7h8---|-0---3---|---------|---------|
B|---------|----------|---------|---------|---------|

G|---------|----------|---------|----7----|-7-----7/|
D|---------|----------|---------|------7--|---7-----|
A|---------|----7-----|---------|-5------5|-----5---|
E|-0-------|-7----10-8|-0---3---|---------|---------|
B|---------|----------|---------|---------|---------|

G|----------|---------|---------|---------|-7-----7/|
D|----------|---------|---------|---------|---7-----|
A|-----7----|---------|---------|-----5---|-----5---|
E|-0-----3--|-0---7--3|-0---3---|---------|---------|
B|----------|---------|---------|-3-------|---------|


G|---------|---------|---------|---------|---------|
D|---------|---------|---------|---------|---------|
A|---------|---------|-----5---|-----6--9|---------|
E|-0-------|---------|-3-------|-7-------|---------|
B|---------|---------|---------|---------|-10--/---|

Break:
G|-------------|
D|-------------|
A|-x3-3-3-2-2-2|
E|-------------|
B|-------------|

---
0:11 - A
1:41 - Break
1:55- A
3:25 - Break

| /  slide up
| \  slide down
| h  hammer-on
| p  pull-off
| ~  vibrato
| +  harmonic
| x  Mute note
===============================================================================
Show more