-------------------------------------------------------------------------------
			     The Fare to Get There - Do Make Say Think
-------------------------------------------------------------------------------

Tabbed By : Jaronator
e-mail: jaronatorpwns@gmail.com

Tuning:Standard

Verse Aa:
G|--------|--------|
D|-------5|-------5|
A|--------|-3------|
E|--------|--------|
B|--------|--------|

Repeat that final bar, until around 
13:40 when he starts playing around with
how often the G note's played.

Verse Ab:
G|--------|--------|
D|--------|--------|
A|--------|--------|
E|-------3|-------3|
B|--------|-1------|

Same thing as before, only an octave lower.
Feel free to attempt tuning the E string down 
to a C to reach that note as an open, if the
string can handle it.

---
8:01 - Aa
13:40 - Aa with slight variations
16:50 - Ab


| /  slide up
| \  slide down
| h  hammer-on
| p  pull-off
| ~  vibrato
| +  harmonic
| x  Mute note
===============================================================================
Show more