Intro guitar

Intro bass:
G|-------------------------------------------------------------------|
D|-------------------------------------------------------------------|
A|55-77-99-77-55-55-77-999-77-55-2222-222-22-22-22-2-00-4-00-575-----|
E|-------------------------------------------------------------------|x2

Verso:
G|-----------------------------------------------------------------------|
D|-----------------------------------------------------------------------|
A|55-7575-55-7575-55-7575-55-7-5-7-5\22-4242-22-4242-22-4242-22-4-2-4-2--|
E|-----------------------------------------------------------------------|x2

Bridge:
G|-----------------------------------------------------------------------|
D|--------------------------------------------------2-2-2-2--------------|
A|0-0-00000-00-0-0-0000\22222222-2-2-22-22222222222--------0-0-0000-00000|
E|-----------------------------------------------------------------------|



Core
G|----------------------------------------------------------------------|
D|----------------------------------------------------------------------|
A|55-55-55-55-55-55-55-55---------------55--------2-00-4-00-575---------|
E|-----------------------757575-7-5-7-5----757575-----------------------|x2


Intro bass X1

Verse x2

Bridge 

Core x2

Solo: star with the drum
G|--------------------------------------------------------------------|
D|--------------------------------------------------------------------|
A|000000-57-00000000--5-000000-57-0000000-5---------------------------|
E|--------------------------------------------------------------------|


G|--------------------------------------------------------------------|
D|-------42-----------4--------42----------4--------------------------|
A|222222----222222222---222222----222222222---------------------------|
E|--------------------------------------------------------------------|

Here the guitar star to sound with the drum

G|--------------------------------------------------------------------|
D|--------------------------------------------------------------------|
A|000000-57-00000000--5-000000-57-0000000-5---------------------------|
E|--------------------------------------------------------------------|

G|--------------------------------------------------------------------|
D|-------42-----------4--------42-------------------------------------|
A|222222----222222222---222222----2-00-4-00-575-----------------------|
E|--------------------------------------------------------------------|


G|--------------------------------------------------------------------|
D|--------------------------------------------------------------------|
A|000000-57-00000000--5-000000-57-0000000-5---------------------------|
E|--------------------------------------------------------------------|

G|--------------------------------------------------------------------|
D|-------42-----------4--------42-------------------------------------|
A|222222----222222222---222222----2-00-4-00-575---55-------55---------|
E|--------------------------------------------------------------------|


G|--------------------------------------------------------------------|
D|--------------------------------------------------------------------|
A|---------------55--------2-00-4-00-575------------------------------|
E|-757575-7-5-7-5---757575--------------------------------------------|
Core x1

Core 2
G|------------------------------------------------------------------------|
D|------------------------------------------------------------------------|
A|55-55-55-77-55-77-55-55-55-77-55-77---------------55------2-00-4-00-575-|
E|------------------------------------757575-7-5-7-5--757575--------------|x2

ivan.coello_rodriguez@hotmail.com
i am 16 years and this it is my first tab
Show more