intro and verse:
|-------0-----------0-----------0-----------0-----------0----------------|
|-----0---0-------0---0-------0---0-------0---0-------0---0--------------|
|---1-------1---2-------2---4-------4---6-------6---6-------6------------|
|-2-----------4-----------6-----------7-----------7----------------------|
|------------------------------------------------------------------------|
|------------------------------------------------------------------------|

chorus: 

|-------0-----------0-----------0-----------0-----------0-----------0----|
|-----0---0-------0---0-------0---0-------0---0-------0---0-------0---0--|
|---1-------1---4-------4---1-------1---2-------2---1-------1---4-------4|
|-2-----------4-----------2-----------2-----------2-----------4----------|
|------------------------------------------------------------------------|
|------------------------------------------------------------------------|

|-------0-----|then, back to verse.
|-----0---0---|
|---1-------1-|
|-2-----------|
|-------------|
|-------------|
Show more